Blink 182 - Dumpweed Chords & Tabs

 

Dumpweed Chords & Tabs

Blink 182 Chords & Tabs

Version: 9 Type: Tab 0 ratings
1 star 2 stars 3 stars 4 stars 5 stars
comments

Dumpweed Tab

Band: Blink182
Song: Dumpweed
Album: Enema of the State
E-mail: eved05@stdavids.co.za

> = play clean

Intro1:
e -------------------------------------------------------------
B -------------------------------------------------------------
G -------------------------------------------------------------
D ---6h7-6-----4---6h7-6-----4----6h7-6-----4----6h7-6--9-0-4--
A -----------0-------------0----0---------0----0---------------
E -0-------7-----0-------7--------------7----------------------

Intro2: This riff is played really F A S T
(X2)
e ------------------------------------------------------         
B -9-7-0-9-7-0--7-5-0-7-5-0--9-7-0-9-7-0--10-8-0-10-8-0-
G ------------------------------------------------------
D ------------------------------------------------------
A ------------------------------------------------------
E ------------------------------------------------------

Verse: Palm Muted
(X2)
e -------------------------------------------------------------------- 
B --------------------------------------------------------------------
G -----------44444------------44444-------------44444-----------44444-
D -222222222-44444-2222222222-44444-7>777777777-44444-777777777-44444-
A -222222222-22222-2222222222-22222-7>777777777-22222-777777777-22222-
E -000000000-------0000000000-------5>555555555-------555555555-------
[ Tab from: http://www.guitartabs.cc/tabs/b/blink_182/dumpweed_tab_ver_9.html ]
Chorus:
(X2)
e ----------------------------------------------         
B ----------------------------------------------
G ------------4444444444------------4444444444--
D -2222222222-4444444444-7777777777-4444444444--
A -2222222222-2222222222-7777777777-2222222222--
E -0000000000------------5555555555-------------

Bridge:
(X2)
e ---------------------------------------------------------------------
B ---------------------------------------------------------------------
G -----------44444-------------44444-----------44444-----------44444---
D -222222222-44444-22222222222-44444-777777777-44444-777777777-44444---
A -222222222-22222-22222222222-22222-777777777-22222-777777777-22222---
E -000000000-------00000000000-------555555555-------555555555---------

Outro (part of bridge aswell):
(X4)
e --------------------------------------------------------------------
B -9-7-0-5-0--7-5-0-5-0--9-7-0-5-0--10-8-0-5-0------------------
G --------------------------------------------------------------------
D --------------------------------------------------------------------
A ---------------------------------------------------------------------
E --------------------------------------------------------------------

Breakdown:
Intro1
Intro2
Verse1
Intro1
Chorus
Intro2 
Verse2 
Intro1
Chorus
Bridge
Outro

Thatís about it my HoMIES. This is such a cool sounding song!! I am pretty sure this is 
how the song is played. Any corrections, comments, marriage proposals or words of praise
can be sent to my e-mail!

Later

ToRK    (eved05@stdavids.co.za)
Comments