Blink 182 - Dumpweed Chords & Tabs

 

Dumpweed Chords & Tabs

Blink 182 Chords & Tabs

Version: 3 Type: Tab 0 ratings
1 star 2 stars 3 stars 4 stars 5 stars
comments

Dumpweed Tab

   
Blink 182, Dumpweed.
Tabbed by Kornray@hotmail.com.
  
Artist: Blink 182
Song: Dumpweed
Album: Enema of the State/Mark, Tom, and Travis Show (The Enema Strikes Back)

Hello again. This is my third tab. I actually did this tab first, but i didn't want 
to send it in right away. Again, if this tab sux, go easy on me (even though i suk at
playing the guitar). Check out my other 2 tabs: Aliens Exist and Untitled if you want 
more of some crappy tabs.
Kornray00@netzero.net

Intro Part 1: 
E:------------------------------- 
B:------------------------------- 
G:------------------------------- 
D:---6h7p6-----4----6-6h7p6-----4 
A:------------------------------- 
E:0--------7-5--0--0--------7-5-- 

E:-------------------------------------
B:-------------------------------------
G:-------------------------------------
D:----6-6h7p6-----4------6-6h7p6--9----
A:0-------------------0-------------0-9 
E:------------7-5---0------------------

Intro Part 2: 
E:------------------------------------------------- 
B:9p7-0-9p7-0-7p5-0-7p5-0-9p7-0-9p7-0-10p9-0-10p9-0 
G:------------------------------------------------- 
D:------------------------------------------------- 
A:------------------------------------------------- 
E:------------------------------------------------- 
(Play VERY fast)
[ Tab from: http://www.guitartabs.cc/tabs/b/blink_182/dumpweed_tab_ver_3.html ]
Verse: 
E:--------------------------------------------------- 
B:--------------------------------------------------- 
G:--------------------------------------------------- 
D:----------44444----------44444-2222222-44444-222222 
A:222222222-22222-22222222-22222-0000000-22222-000000 
E:000000000-------00000000--------------------------- 
PM .............................. ............. .....
(Spaces indicate letting chord ring for a second)

Chorus: 
E:----------------------------------------------- 
B:----------------------------------------------- 
G:-----------4444444444-2222222222222-44444444444 
D:2222222222-4444444444-2222222222222-44444444444 
A:2222222222-2222222222-0000000000000-22222222222 
E:0000000000------------------------------------- 

Breakdown:
E:---------------------------------------------------
B:---------------------------------------------------
G:---------------------------------------------------
D:----------44444----------44444-2222222-44444-222222
A:222222222-22222-22222222-22222-0000000-22222-000000
E:000000000-------00000000---------------------------
PM...................................................

Continue Breakdown until "You never had a chance no..." 

Outro 
E:---------------------------------------------------------
B:9-7-0-5-0-7-5-0-5-0-9-7-0-5-0-9-7-0-7-5-0-5-0-10-9-0-5-7-
G:---------------------------------------------------------
D:---------------------------------------------------------
A:---------------------------------------------------------
E:---------------------------------------------------------
P.M...................................................

(Note: For Enema Strikes Back (live) version, don't palm mute) 
:: Ultimate Guitar Archive :: 
http://www.ultimate-guitar.com 



Comments