Blink 182 - Dumpweed Chords & Tabs

 

Dumpweed Chords & Tabs

Blink 182 Chords & Tabs

Version: 2 Type: Tab 0 ratings
1 star 2 stars 3 stars 4 stars 5 stars
comments

Dumpweed Tab

DumpWeed-Blink182-Enema of the State
Tab by: John
This is my first tab, so if it's off cut me some slack.  Anyway I think pretty accurate.
If anyone has any questions or corrections email me: ibanez609@msn.com

Intro:
e:-----------------------------------------------------------------------------------------
B:-----------------------------------------------------------------------------------------
G:-----1--1--2--1-----------------------1--1--2--1-----------------1--1--2--1------------
D:-------------------------4--------------------------------4-------------------------4---
A:------------------2--0-------0---------------------2--0-----------------------2--0-----0
E:--0--------------------------------0---------------------------0-------------------------
[ Tab from: http://www.guitartabs.cc/tabs/b/blink_182/dumpweed_tab_ver_2.html ]
e:-----------------------------4p-----0--2p------0---4p-----0----5p-----0--
B:---------------------------------0----------0-----------0-----------0-----
G:-----1--1--2--1--4--------------------------------------------------------
D:-------------------------4------------------------------------------------
A:---------------------2----------------------------------------------------
E:--0-----------------------------------------------------------------------

Verse:
e:---------------------------------------------------------------------------
B:---------------------------------------------------------------------------
G:---------------------------------------------------------------------------
D:-------------44444-------------44444--22222222--44444--222222----------
A:--22222222--22222--22222222--22222--00000000--22222--000000----------
E:--00000000----------00000000---------------------------------------------

Chorus:
e:----------------------------------------------------------
B:----------------------------------------------------------
G:---------------4444444444--2222222222222--44444444444
D:--2222222222--4444444444--2222222222222--44444444444
A:--2222222222--2222222222--0000000000000--22222222222
E:--0000000000---------------------------------------------

That's it except for the outro, I couldn't pick it out and be sure that it was accurate.___________________________________________________________
Get more from your time online.  
Comments