Blink 182 - Dumpweed Chords & Tabs

 

Dumpweed Chords & Tabs

Blink 182 Chords & Tabs

Version: 5 Type: Bass Tab 0 ratings
1 star 2 stars 3 stars 4 stars 5 stars
comments

Dumpweed Bass Tab

        :: This is How it is Played At Live At Big Day Out(2000) ::
                               
                             ::DUMPWEED::

INTRO x1
- -----------------------------------------------------------------
- -----------------------------------------------------------------
- -----------------------------------------------------------------
- --0~--00~---5~--55~----------------------------------------------

PRE-VERSE x2
- -----------------------------------------------------------------
- -----------------------------------------------------------------
- ------------00000000-22222222------------------------------------
- --00000000-------------------------------------------------------

VERSE x2
- -----------------------------------------------------------------
- -----------------------------------------------------------------
- -----------22222----------22222----------------------------------
- --00000000-------00000000----------------------------------------

- -----------------------------------------------------------------
- -----------------------------------------------------------------
- --00000000-22222--00000000-22222---------------------------------
- -----------------------------------------------------------------

INTRO x1
- -----------------------------------------------------------------
- -----------------------------------------------------------------
- -----------------------------------------------------------------
- --0~--00~---5~--55~----------------------------------------------

CHORUS x1
- -----------------------------------------------------------------
- -----------------------------------------------------------------
- -----------22222222-00000000-22222222----------------------------
- --00000000-------------------------------------------------------

- -----------------------------------------------------------------
- -----------------------------------------------------------------
- -----------22222222-00000000--2-2--------------------------------
- --00000000-------------------------------------------------------

PRE-VERSE x2
- -----------------------------------------------------------------
- -----------------------------------------------------------------
- -----------00000000-22222222-------------------------------------
- --00000000-------------------------------------------------------

VERSE x1
- -----------------------------------------------------------------
- -----------------------------------------------------------------
- -----------22222----------22222----------------------------------
- --00000000-------00000000----------------------------------------
[ Tab from: http://www.guitartabs.cc/tabs/b/blink_182/dumpweed_btab_ver_5.html ]
- -----------------------------------------------------------------
- -----------------------------------------------------------------
- --00000000-22222--00000000-22222---------------------------------
- -----------------------------------------------------------------

INTRO x1
- -----------------------------------------------------------------
- -----------------------------------------------------------------
- -----------------------------------------------------------------
- --0~--00~---5~--55~----------------------------------------------

CHORUS x2
- -----------------------------------------------------------------
- -----------------------------------------------------------------
- -----------22222222-00000000-22222222----------------------------
- --00000000-------------------------------------------------------

- -----------------------------------------------------------------
- -----------------------------------------------------------------
- -----------22222222-00000000--2-2--------------------------------
- --00000000-------------------------------------------------------

VERSE x2
- -----------------------------------------------------------------
- -----------------------------------------------------------------
- -----------22222----------22222----------------------------------
- --00000000-------00000000----------------------------------------

- -----------------------------------------------------------------
- -----------------------------------------------------------------
- --00000000-22222--00000000-22222---------------------------------
- -----------------------------------------------------------------

OUTRO 
- -----------------------------------------------------------------
- -----------------------------------------------------------------
- -----------22222----------22222----------------------------------
- --00000000-------00000000----------------------------------------

- -----------------------------------------------------------------
- -----------------------------------------------------------------
- ----------------------------------------------------------------- 
- --00000000-22222--00000000-22222---------------------------------

Last Time
- -----------------------------------------------------------------
- -----------------------------------------------------------------
- -----------22222----------22222----------------------------------
- --00000000-------00000000----------------------------------------

- -----------------------------------------------------------------
- -----------------------------------------------------------------
- ----------------------------------------------------------------- 
- --00000000-22222--00000000-22222~~-------------------------------

By The Way Mark Hoppus Uses His Own Custom Fender,You Can pick one up at your
local guitar Center.I Recommend it.

Well There Ya Go,Have fun
                         Jim
Comments