Blink 182 - Dumpweed Chords & Tabs

 

Dumpweed Chords & Tabs

Blink 182 Chords & Tabs

Version: 4 Type: Bass Tab 0 ratings
1 star 2 stars 3 stars 4 stars 5 stars
comments

Dumpweed Bass Tab

   
Band:Blink 182
Song name:Dumpweed
Album: Enema of the state + the mark tom and travis show
Bass player:Mark hoppus
Tabbed by: Luke Fletcher- lukey_pukey31@hotmail.com
Tuning:Normal E,A,D,G


Intro
G-------------------------------------------------------------
D-------------------------------------------------------------
A-------------0------00---------------------------------------
E-0-----00----------------------------------------------------

Interlude
G-------------------------------------------------------------
D-------------------------------------------------------------
A-------------------------------------------------------------
E-00000000-55555555-77777777-5--------------------------------
[ Tab from: http://www.guitartabs.cc/tabs/b/blink_182/dumpweed_btab_ver_4.html ]
Verse
G-------------------------------------------------------------
D-------------------------------------------------------------
A--------22222----------22222--00000000-22222-00000000-22222--
E-0000000-------00000000--------------------------------------

Pre-chorus
G-------------------------------------------------------------
D-------------------------------------------------------------
A----------0------0-------------------------------------------
E-0------0----------------------------------------------------

Chorus
G-------------------------------------------------------------
D-------------------------------------------------------------
A-----2222-0000-2222-----2222-0000-22-------------------------
E-0000---------------0000-------------------------------------

Intro x1
Interlude x2
Verse x2
Pre-chorus x1
Chorus x1
Interlude x2
Verse x1
pre-chorus x1
Chorus x2
Verse x4

Hope you like this tab, this songs got to be one of the greatest blink songs
ever. My band has coverered it along with the whole MTT show album and this
is how i play it and ive had no problems.

If you have any problems with this tab please dont insult me, just send me an
email telling me wots wrong with it or go on my forum on www.snare.cjb.net
Comments