Blink 182 - Down Chords & Tabs

 

Down Chords & Tabs

Blink 182 Chords & Tabs

Version: 5 Type: Tab 0 ratings
1 star 2 stars 3 stars 4 stars 5 stars
comments

Down Tab

Artist: Blink 182
Song Title: Down
Album: Blink 182
Tuning: Standard, Capo 2nd fret, All notes relative to the capo

Intro
e---------------------------------
B---------------------------------
G---------x-x--------x-x-----x-x--
D--7--7-7-x-x-7--7-7-x-x-7-7-x-x--
A--0--0-0-x-x-0--0-0-x-x-0-0-x-x--
E--5--5-5-x-x-5--5-5-x-x-5-5-x-x--

Verse
e------------------------------------------------
B------------------------------------------------
G------------------------------------------------
D--7-7-7-7--7-7-7-7--7-7--4-4-4-4--6-6-6-6--6-6--
A--0-0-0-0--0-0-0-0--0-0--0-0-0-0--0-0-0-0--0-0--
E--5-5-5-5--5-5-5-5--5-5--2-2-2-2--4-4-4-4--4-4--
[ Tab from: http://www.guitartabs.cc/tabs/b/blink_182/down_tab_ver_5.html ]
Chorus
e----------------------------------------------------------------
B----------------------------------------------------------------
G----------------------------------------------------------------
D--4--4-4-4-4-4--4-4-4-4-4-4-4-4--6--6-6-6-6-6--6-6-6-6-6-6-6-6--
A--4--4-4-4-4-4--4-4-4-4-4-4-4-4--6--6-6-6-6-6--6-6-6-6-6-6-6-6--
E--2--2-2-2-2-2--2-2-2-2-2-2-2-2--4--4-4-4-4-4--4-4-4-4-4-4-4-4--

e----------------------------------------------------------------
B----------------------------------------------------------------
G----------------------------------------------------------------
D--7--7-7-7-7-7--7-7-7-7-7-7-7-7--2--2-2-2-2-2--2-2-2-2-2-2-2-2--
A--7--7-7-7-7-7--7-7-7-7-7-7-7-7--2--2-2-2-2-2--2-2-2-2-2-2-2-2--
E--5--5-5-5-5-5--5-5-5-5-5-5-5-5--0--0-0-0-0-0--0-0-0-0-0-0-0-0--

e----------------------------------------------------------------
B----------------------------------------------------------------
G----------------------------------------------------------------
D--4--4-4-4-4-4--4-4-4-4-4-4-4-4--6--6-6-6-6-6--6-6-6-6-6-6-6-6--
A--4--4-4-4-4-4--4-4-4-4-4-4-4-4--6--6-6-6-6-6--6-6-6-6-6-6-6-6--
E--2--2-2-2-2-2--2-2-2-2-2-2-2-2--4--4-4-4-4-4--4-4-4-4-4-4-4-4--
Comments