Blink 182 - Down Chords & Tabs

 

Down Chords & Tabs

Blink 182 Chords & Tabs

Version: 4 Type: Tab 0 ratings
1 star 2 stars 3 stars 4 stars 5 stars
comments

Down Tab

Tabbed By Colin Baillio

This is 100% correct!

Down

Intro
1-----------------------------------------------
2-----------------------------------------------
3---4-4-4--4-4-4--4-4--4-4-4--4-4-4--4-4--------
4---x-x-x--x-x-x--x-x--x-x-x--x-x-x--x-x--------
5---2-2-2--2-2-2--2-2--2-2-2--2-2-2--2-2--------
6----------------------------------------------- X8
[ Tab from: http://www.guitartabs.cc/tabs/b/blink_182/down_tab_ver_4.html ]
Verse
1---------------------------------------------------
2---------------------------------------------------
3---4~----------------------------------------------
4---x~---6-6--8-8-----------------------------------
5---2~---x-x--x-x-----------------------------------
6--------4-4--6-6-----------------------------------  X4
Chorus pt. 1
1---------------------------------------------------
2---------------------------------------------------
3---4-4-4-4-----------------------------------------
4---x-x-x-x------6-6-6-6-----8-8-8-8----------------
5---2-2-2-2-X4---x-x-x-x-----x-x-x-x----------------
6----------------4-4-4-4-X2--6-6-6-6-X2------------- X4

Chorus pt. 2
1-----------------------------------------------
2-----------------------------------------------
3---4-4-4--4-4-4--4-4--4-4-4--4-4-4--4-4--------
4---x-x-x--x-x-x--x-x--x-x-x--x-x-x--x-x--------
5---2-2-2--2-2-2--2-2--2-2-2--2-2-2--2-2--------
6----------------------------------------------- X8
Bridge
1-----------------------------------------------
2-----------------------------------------------
3---4-4-4--4-4-4--4-4--4-4-4--4-4-4--4-4--------
4---x-x-x--x-x-x--x-x--x-x-x--x-x-x--x-x--------
5---2-2-2--2-2-2--2-2--2-2-2--2-2-2--2-2--------
6-----------------------------------------------

Intro
Verse
Chorus pt. 1
Chorus pt. 2
Bridge
Verse
Chorus pt. 1
Chorus pt. 2
Intro
Intro
Comments