Blink 182 - Down Chords & Tabs

 

Down Chords & Tabs

Blink 182 Chords & Tabs

Version: 3 Type: Tab 0 ratings
1 star 2 stars 3 stars 4 stars 5 stars
comments

Down Tab

   
-------------------------------------------------------------------------------
			     Blink 182 - Down
-------------------------------------------------------------------------------
Tabbed by: Kevin Tozer
Email: plugy83@hotmail.com

Tuning:Standard

This is all pretty well up and down strumming, and the strumming amount might be
wrong on some parts.  This is my first tab, so if it's wrong, oh well!  The new
album is awesome!!!

Intro
e|--------------------------------------------------------------------|
B|--------------------------------------------------------------------|
G|--4-4-x-x-4-4-x-x-4-x-x-4-4-x-x-4-4-x-x-4-----4---------------------|
D|--4-4-x-x-4-4-x-x-4-x-x-4-4-x-x-4-4-x-x-4-x2--4-(let ring)----------|
A|--2-2-x-x-2-2-x-x-2-x-x-2-2-x-x-2-2-x-x-2-----2---------------------|
E|--------------------------------------------------------------------|

Verse
e|--------------------------------------------------------------------|
B|--------------------------------------------------------------------|
G|-4-4-4-4-4-4-4-4-----4----------------------------------------------|
D|-4-4-4-4-4-4-4-4-x8--4-(let ring)-----------------------------------|
A|-2-2-2-2-2-2-2-2-----2----------------------------------------------|
E|--------------------------------------------------------------------|
[ Tab from: http://www.guitartabs.cc/tabs/b/blink_182/down_tab_ver_3.html ]
Chorus
e|--------------------------------------------------------------------|
B|--------------------------------------------------------------------|
G|--------------------------------------------------------------------|
D|-6-6-6-6-6-6-6-6----8-8-8-8-8-8-8-8----9-9-9-9-9-9-9-9--------------|
A|-6-6-6-6-6-6-6-6-x2-8-8-8-8-8-8-8-8-x2-9-9-9-9-9-9-9-9-x2-----------|
E|-4-4-4-4-4-4-4-4----6-6-6-6-6-6-6-6----7-7-7-7-7-7-7-7--------------|

Chorus (Cont.)
e|--------------------------------------------------------------------|
B|--------------------------------------------------------------------|
G|----------------------------------------------------------4---------|
D|-4-4-4-4-4-4-4-4----6-6-6-6-6-6-6-6----8-8-8-8-8-8-8-8----4(ring)---|
A|-4-4-4-4-4-4-4-4-x2-6-6-6-6-6-6-6-6-x2-8-8-8-8-8-8-8-8-x2-2---------|
E|-2-2-2-2-2-2-2-2----4-4-4-4-4-4-4-4----6-6-6-6-6-6-6-6--------------|

Bridge
e|--------------------------------------------------------------------|
B|--------------------------------------------------------------------|
G|-4-4-4-4-4-4-4-4-----4----------------------------------------------|
D|-4-4-4-4-4-4-4-4-x4--4-(let ring)-----------------------------------|
A|-2-2-2-2-2-2-2-2-----2----------------------------------------------|
E|--------------------------------------------------------------------|

Ending
e|--------------------------------------------------------------------|
B|--------------------------------------------------------------------|
G|-----2---2-------2---2----------------------------------------------|
D|---2---2---2---2---2---2-x9-(this might not be 9 times)-------------|
A|-4-----------4------------------------------------------------------|
E|--------------------------------------------------------------------|


| /  slide up
| \  slide down
| h  hammer-on
| p  pull-off
| ~  vibrato
| +  harmonic
| x  Mute note
===============================================================================
Comments