Blink 182 - Down Chords & Tabs

 

Down Chords & Tabs

Blink 182 Chords & Tabs

Version: 5 Type: Bass Tab 0 ratings
1 star 2 stars 3 stars 4 stars 5 stars
comments

Down Bass Tab

   
Band:Blink 182
Song:Down
Album:Blink 182
Tunning:G,D,A,E (high to low)
(Played with a pick)
                          | End of
Intro/Verse 2:            | Intro/Verse
G|------------------------|-------------|
D|------------------------|-------------|
A|-2222--222---------1111-|-------------|
E|-----------2/4-444------|----0~~------|
[ Tab from: http://www.guitartabs.cc/tabs/b/blink_182/down_btab_ver_5.html ]
Chorus 1:
G|-----------------------------------------------------------------|
D|-----------------------------------------------------------------|
A|-----------11111111--22222222---------------------------11111111-|
E|-44444444----------------------22--22--22--22--44444444----------|
                                                                      |End of
Chorus 2:                                                             |Chorus
G|--------------------------------------------------------------------|-----|
D|--------------------------------------------------------------------|-----|
A|-2-2-2-2-2-2-2-2----------------------------------------------------|-2~~-|
E|------------------0-0-0-0-0-0-0-0--4-4-4-4-4-4-4-4--0-0-0-0-0-0-0-0-|-----|

Verse 1:
G|----------------|
D|----------------|
A|-2~-----1/2--1/-|
E|----2/4---------|

Outro:                                     End:
G|-------------------------------------|   G|------|
D|-------------------------------------|   D|------|
A|-2~~------2~~------2~~------2~~------|   A|-2~~--|-(strum w/
E|-------------------------------------|   E|-0~~--|-pick)

Song Structure:
Intro/Verse 2       1x
End of Intro/Verse  1x
Chorus 1            1x
Chorus 2            2x
End of Chorus       1x
Verse 1             1x (listen for rhythm)
Intro/Verse 2       1x
End of Intro/Verse  1x
Chorus 1            1x
Chorus 2            2x
Outro               (repeat till end)
End                 1x

I got this tab from some one else so if its wrong I don't care
      PE@CE OUT
Comments