Blink 182 - Dont Tell Me That Its Over Chords & Tabs

 

Dont Tell Me That Its Over Chords & Tabs

Blink 182 Chords & Tabs

Version: 2 Type: Tab 0 ratings
1 star 2 stars 3 stars 4 stars 5 stars
comments

Dont Tell Me That Its Over Tab

Blink 182
"Don't Tell Me That It's Over" Track #14 on Mark's CD, the green cd
Take Off Your Pants And Jacket

Intro(Verse 1) (2x)
e-----------------------------------------|
B-----------------------------------------|
G-5----------5-5--------------------------|
D-5-let ring-5-5--------------------------|
A-3----------3-3--------------------------|
E-----------------------------------------|

Pre-Chorus
e-----------------------------------------|
B-----------------------------------------|
G-5---------------------------------------|
D-x-play this chord until the chorus starts
A-3---------------------------------------|
E-----------------------------------------|

Chorus(4x)
e-----------------------------------------|
B-----------------------------------------|
G-5---------------------------------------|
D-5-(8x)-5--------3-----------------------|
A-3------5-(4x)---3-(4x)------------------|
E--------3--------1-----------------------|

Riff
e--|---------------------------------------|
B--|---------------------------------------|
G--|---------------------------------------|
D--|-2---2----2-2--------------------------|
A-3|---3----3-----3------------------------|
E--|---------------------------------------|
    ^Repeat this part 4 times


Verse 2 (4x) (palm muted)
e-----------------------------------------|
B-----------------------------------------|
G-5---------------------------------------|
D-5-(8x)-5--------3-----------------------|
A-3------5-(4x)---3-(4x)------------------|
E--------3--------1-----------------------|

[ Tab from: http://www.guitartabs.cc/tabs/b/blink_182/dont_tell_me_that_its_over_tab_ver_2.html ]
Pre-Chorus
e-----------------------------------------|
B-----------------------------------------|
G-5---------------------------------------|
D-x-play this chord until the chorus starts
A-3---------------------------------------|
E-----------------------------------------|


Riff
e--|---------------------------------------|
B--|---------------------------------------|
G--|---------------------------------------|
D--|-2---2----2-2--------------------------|
A-3|---3----3-----3------------------------|
E--|---------------------------------------|
    ^Repeat this part 4 times

For the bridge I'm not listing how many times to play each chord

Bridge Part 1 (palm muted)
e-----------------------------------------|
B-----------------------------------------|
G--5--------------------------------------|
D--5---5---7--3---------------------------|
A--3---5---7--3---------------------------|
E------3---5--1---------------------------|

Bridge Part 2 ("hold on...") (palm muted)
e-----------------------------------------|
B-----------------------------------------|
G--5--------------------------------------|
D--5---5---3------------------------------|
A--3---5---3------------------------------|
E------3---1------------------------------|

Chorus(8x)
e-----------------------------------------|
B-----------------------------------------|
G-5---------------------------------------|
D-5-(8x)-5--------3-----------------------|
A-3------5-(4x)---3-(4x)------------------|
E--------3--------1-----------------------|


end on
e-----------------------------------------|
B-----------------------------------------|
G-5---------------------------------------|
D-5--let ring-----------------------------|
A-3---------------------------------------|
E-----------------------------------------|

its all in the exact order of the song and its 100% right

e-mail : trecool80@aol.com
Comments