Blink 182 - Dont Leave Me Chords & Tabs

 

Dont Leave Me Chords & Tabs

Blink 182 Chords & Tabs

Version: 7 Type: Tab 0 ratings
1 star 2 stars 3 stars 4 stars 5 stars
comments

Dont Leave Me Tab

   
-------------------------------------------------------------------------------
Don’t Leave Me – BLINK 182
----------------------------------------------------------------------------------------------------------------------------------------------

Song: DON’T LEAVE ME
Album: ENEMA OF THE STATE
Tabbed by: FUNKEY MUNKEY

Key:
** = Palm Mute
~~ = Let Ring
XX = Left Hand Damping
<< = Pick Slide
b = Bend String
h = Hammer On
p = Pull Off

INTRO
e|-XXX-----XXX-----XXX----------------|
B|-XXX-----XXX-----XXX----------------|
G|-XXX-----XXX-777-XXX-4444-7777-9999-|
D|-XXX-777-XXX-777-XXX-4444-7777-9999-|
A|-XXX-777-XXX-555-XXX-2222-5555-7777-|
E|-XXX-555-XXX-----XXX----------------|

VERSE

e|-----|
B|-----|
G|-----| LET RING
D|-7~--|
a|-7~--|
E|-5~--|

CHORUS!
[ Tab from: http://www.guitartabs.cc/tabs/b/blink_182/dont_leave_me_tab_ver_7.html ]
e|-XXX-------------------------------------------|
B|-XXX-------------------------------------------|
G|-XXX------4444-7777-9999-------4444-7777-9999--| 
D|-XXX-7777-4444-7777-9999--7777-4444-7777-9999--|
A|-XXX-7777-2222-5555-7777--7777-2222-5555-7777--|
E|-XXX-5555-----------------5555-----------------|


INTERLUDE!
e|------------------------------------------------|
B|------------------------------------------------|
G|------2-----2-----2-----2-----2-----2-----2-----| Play as many times 
D|----2-----2-----2-----2-----2-----2-----2-------| as needed!
A|--0-----0-----0-----0-----0-----0-----0---------|
E|------------------------------------------------|
   “Let’s try this one more time with feelings…”


OUTRO!
e|---X---------|
B|---X---------|
G|---X---------|
D|-7-X----7~---|
A|-7-X----7~---|
E|-5-X----5~---|

INTRO x2
VERSE x1
CHORUS x2
INTRO x2
VERSE x1
CHORUS x2
INTERLUDE (play as many times as needed)
CHORUS x2
VERSE x1
OUTRO x1
Comments