Blink 182 - Dont Leave Me Chords & Tabs

 

Dont Leave Me Chords & Tabs

Blink 182 Chords & Tabs

Version: 4 Type: Tab 0 ratings
1 star 2 stars 3 stars 4 stars 5 stars
comments

Dont Leave Me Tab

-------------------------------------------------------------------------------
             		DON'T LEAVE ME - Blink 182
-------------------------------------------------------------------------------

Tabbed by: Nali182(@HOTMAIL.COM)
Album: Enema of the State
Tuning: Standard
Distortion: High

Intro
E|-----------------------------------------------------------|
B|-----------------------------------------------------------|
G|------------xxx7-7-77-----------7-77/9-99------------------|
D|--xxx7-7-77-xxx7-7-77-xxx9-9-99-7-77/9-99------------------|
A|--xxx7-7-77-xxx5-5-55-xxx9-9-99-5-55/7-77------------------|
E|--xxx5-5-55-----------xxx7-7-77----------------------------|
[ Tab from: http://www.guitartabs.cc/tabs/b/blink_182/dont_leave_me_tab_ver_4.html ]
Chorus
E|-----------------------------------------------------------|
B|-----------------------------------------------------------|
G|----------------7-77-7-9-99-9------------------------------|
D|--7-77-7-9-99-9-7-77-7-9-99-9------------------------------|
A|--7-77-7-9-99-9-5-55-5-7-77-7------------------------------|
E|--5-55-5-7-77-7--------------------------------------------|

Verse Riff 
E|-----------------------------------------------------------|
B|-----------------------------------------------------------|
G|-----------------------------------------------------------|
D|--7--------------------------------------------------------|
A|--5--------------------------------------------------------|
E|--5--------------------------------------------------------|

Solo
E|-----------------------------------------------------------|
B|-----------------------------------------------------------|
G|-----------------------------------------------------------|
D|--7-----------7-7-7-7-7-7-7-7-7-7-7-7-7-7-7-7--------------|
A|---------------0-0-0-0-0-0-0-0-0-0-0-0-0-0-0-0-------------|
E|-----------------------------------------------------------|

Intro x2
Verse riff
Chorus x4
Intro x2
Verse riff
Chorus x4
Solo
Chorus x4
Comments