Blink 182 - Dont Leave Me Chords & Tabs

 

Dont Leave Me Chords & Tabs

Blink 182 Chords & Tabs

Version: 3 Type: Tab 0 ratings
1 star 2 stars 3 stars 4 stars 5 stars
comments

Dont Leave Me Tab

   
-=-=-=-=-=-=-=-=-=-=-=-=-=-=-=-=-=-=-=
Blink 182
Don't Leave Me
Enema Of The State
Tabbed By Leandro Koren
Leandro_koren@yahoo.com.ar
-=-=-=-=-=-=-=-=-=-=-=-=-=-=-=-=-=-=-=

Intro:
        A5    D5      B5 D5 E5
E||----------------------------|
B||----------------------------|
G||---------XXXX7--XXXX4--7-9--|
D||--XXXX7--XXXX7--XXXX4--7-9--|
A||--XXXX7--XXXX5--XXXX2--5-7--|
e||--XXXX5---------------------|

        A5    D5      B5 D5 E5
E||----------------------------|
B||----------------------------|
G||---------XXXX7--XXXX4--7-9--|
D||--XXXX7--XXXX7--XXXX4--7-9--|
A||--XXXX7--XXXX5--XXXX2--5-7--|
e||--XXXX5---------------------|

Verse:

 let ring
    A5
E||-----||
B||-----||
G||-----||
D||--7--||
A||--7--||
e||--5--||

Verse:

Don't leave me all alone 
Just drop me off at home 
I'll be fine, it's not the first 
Just like last time, but a little worse 

Chorus:
     A5    B5    D5    E5
E||--------------------------||
B||--------------------------||
G||--------4444--7777--9999--||
D||--7777--4444--7777--9999--||
A||--7777--2222--5555--7777--||
e||--5555--------------------||
[ Tab from: http://www.guitartabs.cc/tabs/b/blink_182/dont_leave_me_tab_ver_3.html ]
And she said that I'm not the one that she thinks about and 
She said it stopped being fun, I just bring her down 
I said "don't let your future be destroyed by my past" 
She said "don't let my door hit your ass" 

Intro X 2

One more chance, I'll try this time 
I'll give you yours, I won't take mine 
I'll listen up, pretend to care 
Go on ahead, I'll meet you there 

Chorus:

And she said that I'm not the one that she thinks about and 
She said it stopped being fun, I just bring her down 
I said "don't let your future be destroyed by my past" 
She said "don't let my door hit your ass" 

Only the bass:

E||----------------------||
B||----------------------||
G||----------------------||
D||----------------------||
A||--------2-2-2--5-5-5--||
e||--5-5-5---------------||

Let's try this one more time with feeling 
One more time with feeling 
One more time with feeling 
One more time with feeling 

Chorus:

She said that I'm not the one that she thinks about and 
She said it stopped being fun, I just bring her down 
I said "don't let your future be destroyed by my past" 
She said "don't let my door hit your ass" 

Don't leave me all alone 
Just drop me off at home 
And I'll be fine
-=-=-=-=-=-=-=-=-=-=-=-=-=-=-=-=-=-=-=-=-=-=-=-=-=-=-=-=-=-=-=-=-=-=-=-=-=-=
Any question mail me:
leandro_koren@yahoo.com.ar
-=-=-=-=-=-=-=-=-=-=-=-=-=-=-=-=-=-=-=-=-=-=-=-=-=-=-=-=-=-=-=-=-=-=-=-=-=-=
Comments