Blink 182 - Does My Breath Smell Chords & Tabs

 

Does My Breath Smell Chords & Tabs

Blink 182 Chords & Tabs

Version: 1 Type: Tab 0 ratings
1 star 2 stars 3 stars 4 stars 5 stars
comments

Does My Breath Smell Tab

---------------------------------------------------------------------------
                     Does My Breath Smell?-blink-182
----------------------------------------------------------------------------

Kyle(The Monkey)Baumgarte-baumgart@cyberramp.net

Silly INTRO-slightly muted:Who makes up all those rules...
e|--------------|
B|--------------|
G|--5---------4-|
D|--5--5--7--4--|
A|--3--5--7--2--|
E|------3--5----|

Fast INTRO:
e|------------------------------------------------------|
B|------5-6-5------5-6-5-------5-6-5--------5-6-5-------|
G|--5---------5------------5--5---------5-------------5-|
D|--5-------------3------------5-------------5----------|
A|--3-------------3------------3-------------5----------|
E|----------------1--------------------------3----------|
[ Tab from: http://www.guitartabs.cc/tabs/b/blink_182/does_my_breath_smell_tab.html ]
VERSES:What is this that I am feeling...
e|-------------------------------------|
B|-------------6------------------6----|
G|--5---4----5----4----5----4--5-------|
D|--5---4----3----4----5----4--3----5--|
A|--3---2---------2----3----2-------5--|
E|----------------------------------3--|

CHORUS:No worse a time...
e|------------------------------------|
B|------------------------------------|
G|-----------5---2-----------5--------|
D|---3---5---5---2---3---5---5--------|
A|---3---5---3---0---3---5---3--------|
E|---1---3-----------1---3------------|

Part after drum roll with little solo
e|--------------------------------------------------------------------------
------|
B|--------------------------------------------------------------------------
7-6---|
G|---5-----------------5-6-5-5-5-5-5-5-5-5-6-5-5-5-5-5-5-5-5------5-4-------
------|
D|---5---3---5---3----------------------------------------------------------
------|
A|---3---3---5---3----------------------------------------------------------
------|
E|--------1---3---1---------------------------------------------------------
------|
Play fast intro again

============================================================================
Comments