Blink 182 - Dick Lips Chords & Tabs

 

Dick Lips Chords & Tabs

Blink 182 Chords & Tabs

Version: 9 Type: Tab 0 ratings
1 star 2 stars 3 stars 4 stars 5 stars
comments

Dick Lips Tab

   
Intro:
e---------------------------------------------------
b---------------------------------------------------
g--------------------------------------------------- 2x
d-77777777-77777777-77777777--77777777--------------
a-44444444-55555555-00000000--99999999--------------
E---------------------------------------------------

Verse:
e------------------------------------
b------------------------------------
g------------------7777777--9999999--
d--77777777777777--7777777--9999999-- x2
a--77777777777777--5555555--7777777--
E--55555555555555--------------------
please mom, you ground me all the time i know that i was right all along and im 
hoping you'll remember im a kid i know not what i did just having fun but couldnt

e---------------------------------------------------
b---------------------------------------------------
g--------------------------------------------------- 2x
d-77777777-77777777-77777777--77777777--------------
a-44444444-55555555-00000000--99999999--------------
E---------------------------------------------------
wait, for something new, and yesterday, i thought of you, left me to think as if 
i couldn't walk away it's too late, i fell through

Chorus:
e-----------------------------------------
b-----------------------------------------
g-----------77777777------------99999999--
d--4444444--77777777--77777777--99999999--
a--4444444--55555555--77777777--77777777--
E--2222222------------55555555------------
Nothing to lose, a boy who went out when he finished all his chores

e-----------------------------------------
b-----------------------------------------
g-----------77777777------------9~--------
d--4444444--77777777--77777777--9~--------
a--4444444--55555555--77777777--7~--------
E--2222222------------55555555------------
nothing to do, you cant't trust me, because I blew it once before


e---------------------------------------------------
b---------------------------------------------------
g--------------------------------------------------- 2x
d-77777777-77777777-77777777--77777777--------------
a-44444444-55555555-00000000--99999999--------------
E---------------------------------------------------
[ Tab from: http://www.guitartabs.cc/tabs/b/blink_182/dick_lips_tab_ver_9.html ]
Verse:
e------------------------------------
b------------------------------------
g------------------7777777--9999999--
d--77777777777777--7777777--9999999--x2
a--77777777777777--5555555--7777777--
E--55555555555555--------------------
Shit dad, please dont kick my ass i know ive seen you trashed at least one time, 
can i blame it, on one of my dumb friends, its been a while since i have used that 
line but couldnt 

e---------------------------------------------------
b---------------------------------------------------
g--------------------------------------------------- 2x
d-77777777-77777777-77777777--77777777--------------
a-44444444-55555555-00000000--99999999--------------
E---------------------------------------------------
wait, for something new, and yesterday, i thought of you, left me to think as if i 
couldnt walk away it's too late, i fell through

(Chrous)

Pre Solo:
e---------------------------------
b---------------------------------
g---------------------------------
d--777777-777777-999999999999-----
a--444444-555555-777777777777-----
E---------------------------------

Simple Solo:
e---------------------------------
b---------------------------------
g--------------7-6---------7-7-7-6
d--7-7-7-7-7-7-7-6-2-2-2-2-7-7-7-6 repeat 3 times
a--7-7-7-7-7-7-5-4-2-2-2-2-5-5-5-4
E--5-5-5-5-5-5-----0-0-0-0--------

after solo:
e----------
b----------
g---------- repeat as many times as needed
d-777777777
a-000000000
E----------

Chorus:
e-----------------------------------------
b-----------------------------------------
g-----------77777777------------99999999--
d--4444444--77777777--77777777--99999999--
a--4444444--55555555--77777777--77777777--
E--2222222------------55555555------------
Nothing to lose, a boy who went out when he finished all his chores
e-----------------------------------------
b-----------------------------------------
g-----------77777777------------9~--------
d--4444444--77777777--77777777--9~--------
a--4444444--55555555--77777777--7~--------
E--2222222------------55555555------------
nothing to do, you cant't trust me, because I blew it once before

e--------
b--------
g--------
d-7~-----
a-7~-----
E-5~-----

This Tab took a little while i think its pretty right ya got n e thing to say about it 
or whatever write to me at agent_orange87@hotmail.com
Comments