Blink 182 - Dick Lips Chords & Tabs

 

Dick Lips Chords & Tabs

Blink 182 Chords & Tabs

Version: 7 Type: Tab 0 ratings
1 star 2 stars 3 stars 4 stars 5 stars
comments

Dick Lips Tab

   
submitted by james

intro
clean
play twice
e------------------------------------------------
b------------------------------------------------
g------------------------------------------------
d777777777777-7777777777-------------999999999999
a444444444444-5555555555-77777777777-777777777777
e------------------------55555555555-------------

please mom.........         play twice
e---------------------------------
b---------------------------------
g-----------------77777777-9999999
d7777777777777777-77777777-9999999
a7777777777777777-55555555-7777777
e5555555555555555-----------------
i couldnt wait, for something new...    play twice
e------------------------------------
b------------------------------------
g------------------------------------
d77777777-777777777---------999999999
a44444444-555555555-7777777-777777777
e-------------------55555555---------
nothing to lose, a boy who went out......... play twice
e-----------------------------------
b-----------------------------------
g---------77777777-22222222---------
d444444-7-77777777-22222222-22222222
a444444-7-55555555-00000000-22222222
e222222-5-------------------00000000

e--------------------------------
b--------------------------------
g--------------------------------
d7777777-77777777--------99999999
a4444444-55555555-777777-77777777
e-----------------555555---------
[ Tab from: http://www.guitartabs.cc/tabs/b/blink_182/dick_lips_tab_ver_7.html ]
shit dad, please don't kick my ass.... play twice
e---------------------------------
b---------------------------------
g-----------------77777777-9999999
d7777777777777777-77777777-9999999
a7777777777777777-55555555-7777777
e5555555555555555-----------------
i couldnt wait, for something new..... play twice
e-----------------------------------
b-----------------------------------
g-----------------------------------
d77777777-77777777-77777777-99999999
a44444444-55555555-77777777-77777777
e------------------55555555---------

nothing to lose, i boy who went out........ play twice

e-----------------------------------
b-----------------------------------
g---------77777777-22222222---------
d444444-7-77777777-22222222-22222222
a444444-7-55555555-00000000-22222222
e222222-5-------------------00000000
play twice
e------------------
b------------------
g------------------
d7777-7777-99999999
a4444-5555-77777777
e------------------
play four times
e---------------------------
b---------------------------
g--------7-6-------777777777
d7777777-7-6-22222-777777777
a7777777-5-4-22222-555555555
e5555555-----00000----------

e-------------------------------
b-------------------------------
g2-22222222222222222222222222222
d-------------------------------
a-------------------------------
e-------------------------------

nothing to lose, a boy who went out when he........ play twice

e-----------------------------------
b-----------------------------------
g---------777777777777--------------
d444444-7-777777777777-22222222
a444444-7-555555555555-22222222
e222222-5--------------00000000

end on
e--
b--
g2-
d2-
a0-
e--

this is a great song
any questions? e-mail me at pun4life182@punkmail.com
Comments