Blink 182 - Dick Lips Chords & Tabs

 

Dick Lips Chords & Tabs

Blink 182 Chords & Tabs

Version: 4 Type: Tab 0 ratings
1 star 2 stars 3 stars 4 stars 5 stars
comments

Dick Lips Tab

------------------------------------------------------------
			DICK LIPS - Blink 182
------------------------------------------------------------

Tabbed by: Nali182(@HOTMAIL.COM)
Album: Dude Ranch
Tuning: Standard
Distortion: Normal

Intro
E|----------------------------------------------------------
B|----------------------------------------------------------
G|----------------------------------------------------------
D|----------------------------------------------------------
A|--4444444455555555--------77777777------------------------
E|------------------55555555--------------------------------

Verse                                  Pre Chorus
E|------------------------------------|---------------------
B|------------------------------------|---------------------
G|------------------7777777799999999--|--6------------------
D|--77777777777777777777777799999999--|--6------------------
A|--77777777777777775555555577777777--|--4------------------
E|--5555555555555555------------------|---------------------
[ Tab from: http://www.guitartabs.cc/tabs/b/blink_182/dick_lips_tab_ver_4.html ]
Chorus
E|----------------------------------------------------------
B|----------------------------------------------------------
G|--6666666677777777--------99999999------------------------
D|--66666666777777777777777799999999------------------------
A|--44444444555555557777777777777777------------------------
E|------------------55555555--------------------------------

Interlude part 1
E|----------------------------------------------------------
B|----------------------------------------------------------
G|----------------------------------------------------------
D|----------------------------------------------------------
A|--44445555777777774444555577777777------------------------
E|----------------------------------------------------------

Interlude part 2                        Post interlude
E|-------------------------------------|--------------------
B|-------------------------------------|--------------------
G|--------76----7777-------76----7777--|-7-(play really fast
D|--7777777622227777-7777777622227777--|---until the chorus)
A|--7777775422225555-7777775422225555--|--------------------
E|--555555--0000-----555555--0000------|--------------------

Outro
E|-----|
B|-----|
G|-----|
D|--7--|
A|--7--|
E|--5--|

Intro  x2		(clean)
Verse  x2
Pre chorus
First part of chorus played by bass
Chorus x2
Intro  x2		(clean)
Verse  x2
Pre Chorus
First part of chorus played by bass
Chorus x2
Interlude part 1	(clean)
Interlude part 2
Post Interlude
Chorus x2
Outro
Comments