Blink 182 - Dick Lips Chords & Tabs

 

Dick Lips Chords & Tabs

Blink 182 Chords & Tabs

Version: 3 Type: Bass Tab 0 ratings
1 star 2 stars 3 stars 4 stars 5 stars
comments

Dick Lips Bass Tab

Blink 182- Dick lips

Intro  2x
G---------------------------------------------------------------------
D---------------------------------------------------------------------
A----4-4-4-4-4-4-4-4-5-5-5-5-5-5-5-5-0-0-0-0-0-0-0-0-7-7-7-7-7-7-7-7--
E---------------------------------------------------------------------

Verse 1&2 2x "Please mom..." and "Shit dad..."
G---------------------------------------------------------------------
D---------------------------------------------------------------------
A------------------------------------5-5-5-5-5-5-5-5-7-7-7-7-7-7-7-7--
E----5-5-5-5-5-5-5-5-5-5-5-5-5-5-5-5----------------------------------

      2x
G---------------------------------------------------------------------
D---------------------------------------------------------------------
A----4-4-4-4-4-4-4-4-5-5-5-5-5-5-5-5-0-0-0-0-0-0-0-0-7-7-7-7-7-7-7-7--
E---------------------------------------------------------------------
[ Tab from: http://www.guitartabs.cc/tabs/b/blink_182/dick_lips_btab_ver_3.html ]
Chorus 2x
G---------------------------------------------------------------------
D---------------------------------------------------------------------
A----9-9-9-9-9-9-9-7-5-5-5-5-5-5-5-7-----------------7-7-7-7-7-7-7-7--
E------------------------------------5-5-5-5-5-5-5-7------------------

Part after 2nd chorus 2x
G---------------------------------------------------------------------
A---------------------------------------------------------------------
A----4-4-4-4-5-5-5-5-7-7-7-7-7-7-7-7----------------------------------
E---------------------------------------------------------------------

Part after Tom screams "alright" 4x
G---------------------------------------------------------------------
D---------------------------------------------------------------------
A--------------------5-4---------5-5-5-5-5-5--------------------------
E----5-5-5-5-5-5-5-5-----0-0-0-0--------------------------------------

End Note
G---------------------------------------------------------------------
D---------------------------------------------------------------------
A----0----------------------------------------------------------------
E---------------------------------------------------------------------

Intro
Verse 1
Chorus
Intro
Verse 2
Chorus
Part before "alright'
Part after "alright"
Guitar Solo
Chorus
End note
Comments