Blink 182 - Degenerate Chords & Tabs

 

Degenerate Chords & Tabs

Blink 182 Chords & Tabs

Version: 5 Type: Tab 0 ratings
1 star 2 stars 3 stars 4 stars 5 stars
comments

Degenerate Tab

   
----------------------------------------------------------------------------
			     DEGENERATE - blink-182
----------------------------------------------------------------------------
Tabbed by:otherrandomhero
Email:snowboardchin@mn.rr.com
this is a tab of degenerate by blink-182 from the album dude ranch
Tuning:standard
                verse (starts with singing)       
                                     ...thrown in a police car... 
e|-------------------------|-----------------------------------------------|
B|------------------------o|-----------------------------------------------|
G|-------------------------|-----3-----2------3-----2----------------------|
D|-------------------------|x4-----3-----3--1---3-----3--------------------|
A|-1-x-x-------5--x-------o|---1------------------3------------------------|
E|-------1-x-x------3-x-x--|---------1-------------------------------------|
                             chorus
e|-------------------------------------------------------------------------|
B|-------------------------------------------------------------------------|
G|-------------------------------------------------------------------------|
D|-3333-------8888-10-10-10-10---------------------------------------------|
A|-1111-3333--6666--8--8--8--8---------------------------------------------|
E|------1111---------------------------------------------------------------|
                            thing after chorus
e|-------------------------------------------------------------------------|
B|-------------------------------------------------------------------------|
G|-3-2-0---3-2-5-3-2-3-5--3-2-0---3-2-5-3-2-3-5----------------------------|
D|-------3----------------------3------------------------------------------|
A|-------------------------------------------------------------------------|
E|-------------------------------------------------------------------------|
                                   solo
e|-------------------------------------------------------------------------|
B|-------------------------------------------------------------------------|
G|-3-2-0---3-2-5-3-2-3-5--3-2-0---3-2-5-3-2-3-5--7-8-10-8-7-8-7\5-7-5-7-8--|
D|-------3----------------------3------------------------------------------|
A|-------------------------------------------------------------------------|
E|-------------------------------------------------------------------------|

e|-------------------------------------------------------------------------|
B|-------------------------------------------------------------------------|
G|-10-8-5-7-5\3--3-2-0---3-2-h2-3p-0---------------------------------------|
D|---------------------3-------------0-0-1-3-3-3-1-0-----------------------|
A|---------------------------------------------------1---------------------|
E|-------------------------------------------------------------------------|
    end on
e|-------|
B|-------|
G|-------|
D|--3----|
A|--1----|
E|-------|

lyrics: verse
cross the street, naked at night
bent over, to show some moonliiighhht
pulled out some beer and i gulped it down
nude in a gutter, is how i was found
thrown in a police car, the door slammed
no noise just silence as i screamed my dick was jammed
now in prison, for 1 month
no one to see, all i got is this guy, ben dover

verse 2: went to a farm, to tip some cows
forgot that i left my pants down
bent over to pick them up
felt a 12-gauge, next to my hum-diddy-dum
the farmer took me to his house
showed me the closet from the inside out
the police came and took me away
saw ben dover again, but hes still gay

chorus: dont like hesh, dont like rap kicked old sally cause shes fat
om a jerk im a punk took a shower cause i stunk
smoked a bong killed a cat had my nuts attacked by rats
dad got nude wore a thong for a hobby i make bombs
song order:
verse x4
chorus x4
transition
verse x4
chorus x4
solo
chorus x8
end chord
 /  slide up
 \  slide down
 h  hammer-on
 p  pull-off
 ~  vibrato
 +  harmonic
 x  Mute note
note: this is my first tab so please email me and tell me what you think
============================================================================
[ Tab from: http://www.guitartabs.cc/tabs/b/blink_182/degenerate_tab_ver_5.html ]
Comments