Blink 182 - Degenerate Chords & Tabs

 

Degenerate Chords & Tabs

Blink 182 Chords & Tabs

Version: 2 Type: Tab 0 ratings
1 star 2 stars 3 stars 4 stars 5 stars
comments

Degenerate Tab

Degenerate


E----------------------------------------------------
B----------------------------------------------------
G--3---------8---5------------------------------------
D--3---3----8---5-repeat-4-times---------------------
A--1---3----6---3------------------------------------
E-------1---------------------------------------------



then this  clean     part 2
E----------------------------------------------------
B----------------------------------------------------
G----3-----------8-------5---------------------------
D---3-3---3-----8-8-----5-5-repeat-four-times--------
A--1-----3-3---6-------3-----------------------------
E-------1--------------------------------------------

and then this  distorted  part 3
E----------------------------------------------------
B----------------------------------------------------
G--3---------8----5----------------------------------
D--3-8x-3-8x-8-8x-5-8x-------------------------------
A--1----3----6----3----------------------------------
E-------1--------------------------------------------
[ Tab from: http://www.guitartabs.cc/tabs/b/blink_182/degenerate_tab_ver_2.html ]
the solo thingy  distorted
E----------------------------------------------------
B----------------------------------------------------
G---3-2-----3-2-5-3-2-5------------------------------
D------3----------------repeat-once------------------
A----------------------------------------------------
E----------------------------------------------------

the real solo   distorted
E----------------------------------------------------
B-------7-5-3-3-5-7-----7----------------------------
G---7-8-------------7-8---x4-------------------------
D----------------------------------------------------
A----------------------------------------------------
E----------------------------------------------------

then end the solo with this  distorted
E----------------------------------------------------
B----------------------------------------------------
G------3-2-------------------------------------------
D----------3-----------------------------------------
A----------------------------------------------------
E----------------------------------------------------
Comments