Blink 182 - Dancing With Myself Chords & Tabs

 

Dancing With Myself Chords & Tabs

Blink 182 Chords & Tabs

Version: 6 Type: Tab 0 ratings
1 star 2 stars 3 stars 4 stars 5 stars
comments

Dancing With Myself Tab

ain Riff:
--------------------------
--------------------------
-5-5-5-5-4-5-7-5----------Play About 13 Times for first verse
--------------------------8 times for second
--------------------------
--------------------------
[ Tab from: http://www.guitartabs.cc/tabs/b/blink_182/dancing_with_myself_tab_ver_6.html ]
Chorus:
----------------------------------------------------------------
----------------------------------------------------------------
-5*-5-5-5-5-5-5-------------------------------------------------
-5--5-5-5-5-5-5--3*-3-3-3-3-3-3--7*-7-7-7-7-7-7--3*-3-3-3-3-3-3-
-3--3-3-3-3-3-3--3--3-3-3-3-3-3--7--7-7-7-7-7-7--3--3-3-3-3-3-3-
-----------------1--1-1-1-1-1-1--5--5-5-5-5-5-5--1--1-1-1-1-1-1-

Solo
--------------------------------------
--------------------------------------
-0-0-0-0-5-5-5-5-7-7-7-7-12-12-12-12--
--------------------------------------
--------------------------------------
--------------------------------------
Comments