Blink 182 - Dammit Chords & Tabs

 

Dammit Chords & Tabs

Blink 182 Chords & Tabs

Version: 9 Type: Tab 0 ratings
1 star 2 stars 3 stars 4 stars 5 stars
comments

Dammit Tab

-------------------------------------------------------------------------------
			Dammit - Blink 182
-------------------------------------------------------------------------------

Tabbed by: Nali182(@HOTMAIL.COM)
Album: Dude Ranch
Tuning: Standard
Distortion: High

There are two ways of playing the intro, choose whatever is most comfortable.

Intro 1
E|-----------------------------------------------------------|
B|-----------------------------------------------------------|
G|-----------------------------------------------------------|
D|----------------------------------------------2-2--0-------|
A|--3-3--5-5--7-------5-5--7-------5-5--7--------------------|
E|---------------3-3----------5-5----------1-1---------------|

Intro 2 (Lazy intro)
E|-----------------------------------------------------------|
B|-----------------------------------------------------------|
G|----------------------------------------------2-2--0-------|
D|-------0-0--2-------0-0--2-------0-0--2--------------------|
A|--3-3-----------------------0-0----------------------------|
E|---------------3-3-----------------------1-1---------------|
[ Tab from: http://www.guitartabs.cc/tabs/b/blink_182/dammit_tab_ver_9.html ]
Verse 1
E|-----------------------------------------------------------|
B|-----------------------------------------------------------|
G|--5-55555--------------------------------------------------|
D|--5-55555--5-55555--7-77777--3-33333-----------------------|
A|--3-33333--5-55555--7-77777--3-33333-----------------------|
E|-----------3-33333--5-55555--1-11111-----------------------|
PM    .....    .....    .....    .....

Verse 2
E|-----------------------------------------------------------|
B|-----------------------------------------------------------|
G|--55555555-------------------------------------------------|
D|--55555555-55555555-77777777-33333333----------------------|
A|--33333333-55555555-77777777-33333333----------------------|
E|-----------33333333-55555555-11111111----------------------|

Chorus
E|------------------------------------------------------------------|
B|------------------------------------------------------------------|
G|--5-5-5-5-5-5-5-5-------------------------------------------------|
D|--5-5-5-5-5-5-5-5-5-5-5-5-5-5-5-5-7-7-7-7-7-7-7-7-3-3-3-3-3-3-3-3-|
A|--3-3-3-3-3-3-3-3-5-5-5-5-5-5-5-5-7-7-7-7-7-7-7-7-3-3-3-3-3-3-3-3-|
E|------------------3-3-3-3-3-3-3-3-5-5-5-5-5-5-5-5-1-1-1-1-1-1-1-1-|

Bridge
E|-----------------------------------------------------------|
B|-----------------------------------------------------------|
G|-----------------------------------------------------------|
D|--2------0-2----2------0-2---0-2---------------------------|
A|----3--------3----3--------3-----3-------------------------|
E|------3-------------3--------------------------------------|

Intro   x4
Verse 1 x2
Verse 2 x2
Intro   x2
Verse 1 x2
Verse 2 x2
Chorus  x2
Intro   x2
Verse 1 x2
Verse 2 x2
Chorus  x2
Bridge  x2 (clean)
Intro   x4
Comments