Blink 182 - Dammit Chords & Tabs

 

Dammit Chords & Tabs

Blink 182 Chords & Tabs

Version: 4 Type: Tab 0 ratings
1 star 2 stars 3 stars 4 stars 5 stars
comments

Dammit Tab

Blink 182, Damnit
James, Dave3641@aol.com
Alright, I just saw a blink tab on this site, and it is pretty much garbage.  There aren't too many good tabs out there, even though this site is probably the best.  There are a lot of people out there that are like, "I was too lazy to finish it, so play it like this", and i know you guys read that, and are like, "what the Fuck?"
So here is the good tab of Damnit.....
Any questions or comments feel free to email me any time at Davem3641@aol.com

E--------------------------------------------------
B--------------------------------------------------
G--------------------------------------------------
D------0-0-2-----0-0-2-----0-0-2-------2-2-0-------
A--3-3-----------------0-0-------------------------
e-------------3-3-----------------1-1--------------
[ Tab from: http://www.guitartabs.cc/tabs/b/blink_182/dammit_tab_ver_4.html ]
               REPEAT THIS PRETTY MUCH THROUGHOUT THE WHOLE SONG AND HAVE YOUR DISTORTION TURNED PRETTY HIGH UP, CAUSE IT DOESN't SOUND AS GOOD WITHOU IT.

THEN THERE IS ONE PART THAT IS LIKE....
E---------------------------------------------------
B---------------------------------------------------
G---5-x-x-x-x---------------------------------------
D---5-x-x-x-x---5-x-x-x-x---7-x-x-x-x---3-x-x-x-x---
A---3-x-x-x-x---5-x-x-x-x---7-x-x-x-x---3-x-x-x-x---
E---------------3-x-x-x-x---5-x-x-x-x---1-x-x-x-x---

THEN AFTER THAT ALL YOU DO IS JUST PLAY THAT LINE WITHOUT THE MUTING, AND YOU JUST PLAY THE POWER CHORD.
NOT HARD AT ALL!!!
CHECK OUT ALL THE RAGE AGAINST THE MACHINE STUFF, AND IF YOU HAVE ANY NEW TABS FROM THE BATTLE OF LOS ANGLELES CD, SEND THEM TO ME CAUSE I TABBED THIS FOR YOU!!!

DAVE3641@AOL.COM

Comments