Blink 182 - Dammit Chords & Tabs

 

Dammit Chords & Tabs

Blink 182 Chords & Tabs

Version: 2 Type: Tab 5 ratings
1 star 2 stars 3 stars 4 stars 5 stars
comments

Dammit Tab

this a very kick ass and easy song.
with distortion in regular tuning
E-----------------------------------]
B-----------------------------------]
G-----------------------------------]
D-----0-0-2---0-0-2---0-0-2-3-2-2-0-]play 3 times
A-3-3---------------0---------------]
E-----------3-----------------------]
[ Tab from: http://www.guitartabs.cc/tabs/b/blink_182/dammit_tab_ver_2.html ]
E----------------------------------------]
B----------------------------------------]
G--5-5-5-5-------------2-2-2-2-----------]play 
D--5-5-5-5---5-5-5-5---2-2-2-2---3-3-3-3-]this
A--3-3-3-3---5-5-5-5---0-0-0-0---3-3-3-3-]throughout
E------------3-3-3-3-------------1-1-1-1-]the song

interlude
E-------------------------------]
B-------------------------------]
G-------------------------------]repeat once
D-9-----7-9---9-----7-9--7-9----]
A--10------10--10------10----10-]
E----10----------10-------------]
Comments