Blink 182 - Dammit Live Chords & Tabs

 

Dammit Live Chords & Tabs

Blink 182 Chords & Tabs

Version: 3 Type: Tab 0 ratings
1 star 2 stars 3 stars 4 stars 5 stars
comments

Dammit Live Tab

Band: blink 182
Song: Dammit (live)
Tabbed By: DanielLuengas
E-mail: daniel182col@hotmail.com

hey, I know this song is old but really cool too and Tom played this live in
the Big Day Out 2000 at Sydney... and it's 100% right so... enjoy.....

please vote.

Intro: 
e|----------------------------------------------|
B|----------------------------------------------|
G|----------------------------------------------|
D|----------2----------2-----0-0-2------2-2-0---|
A|-3-3--5-5--------5-5---0-0--------------------|  X2
E|-------------3-3------------------1-1---------|

e|----------------------------------------------|
B|----------------------------------------------|
G|----------------------------------------------|
D|-----5-5-2----------2------5-5-2--------------|
A|-3-3------------5-5----0-0-----------2-2-0----|  X1
E|------------3-3------------------1-1----------|

e|----------------------------------------------|
B|----------------------------------------------|
G|----------------------------------------------|
D|----------2----------2-----0-0-2------2-2-0---|
A|-3-3--5-5--------5-5---0-0--------------------|  X1
E|-------------3-3------------------1-1---------|

Verse:
e|--------------------------------------|
B|--------------------------------------|
G|-5-5555----------2-2222---------------|
D|-5-5555--5-5555--2-2222--3-3333-------|
A|-3-3333--5-5555--0-0000--3-3333-------| X2
E|---------3-3333----------1-1111-------|
P.M  ....    ....    ....    ....

Verse pt. 2
e|--------------------------------------|
B|--------------------------------------|
G|-5-5555----------2-2222---------------|
D|-5-5555--5-5555--2-2222--3-3333-------|
A|-3-3333--5-5555--0-0000--3-3333-------| X2
E|---------3-3333----------1-1111-------|

Intro:
e|----------------------------------------------|
B|----------------------------------------------|
G|----------------------------------------------|
D|-----0-0-2------0-0-2------0-0-2------2-2-0---|
A|-3-3-------------------0-0--------------------|  X2
E|------------3-3-------------------1-1---------|

Verse:
e|--------------------------------------|
B|--------------------------------------|
G|-5-5555----------2-2222---------------|
D|-5-5555--5-5555--2-2222--3-3333-------|
A|-3-3333--5-5555--0-0000--3-3333-------| X2
E|---------3-3333----------1-1111-------|
P.M  ....    ....    ....    ....

Verse pt. 2
e|---------------------------------------|
B|---------------------------------------|
G|-5-5555--7-7777--9-9999--10-10101010---|
D|-5-5555--7-7777--9-9999--10-10101010---|
A|-3-3333--5-5555--7-7777---8--8-8-8-8---| X1
E|---------------------------------------|
[ Tab from: http://www.guitartabs.cc/tabs/b/blink_182/dammit_live_tab_ver_3.html ]
e|--------------------------------------|
B|--------------------------------------|
G|-5-5555----------2-2222---------------|
D|-5-5555--5-5555--2-2222--3-3333-------|
A|-3-3333--5-5555--0-0000--3-3333-------| X1
E|---------3-3333----------1-1111-------|

Chorus:
e|--------------------------------------|
B|--------------------------------------|
G|-5-5555----------2-2222---------------|
D|-5-5555--5-5555--2-2222--3-3333-------|
A|-3-3333--5-5555--0-0000--3-3333-------| X1
E|---------3-3333----------1-1111-------|

e|-------------------------------------------|
B|-------------------------------------------|
G|-5-5555----------2-2222--------------------|
D|-5-5555--5-5555--2-2222--3-3333--5-5555----|
A|-3-3333--5-5555--0-0000--3-3333--5-5555----| X1
E|---------3-3333----------1-1111--3-3333----|

Intro:
e|----------------------------------------------|
B|----------------------------------------------|
G|----------------------------------------------|
D|-----0-0-2------0-0-2------0-0-2------2-2-0---|
A|-3-3-------------------0-0--------------------|  X2
E|------------3-3-------------------1-1---------|

Verse:
e|--------------------------------------|
B|--------------------------------------|
G|-5-5555----------2-2222---------------|
D|-5-5555--5-5555--2-2222--3-3333-------|
A|-3-3333--5-5555--0-0000--3-3333-------| X2
E|---------3-3333----------1-1111-------|
P.M  ....    ....    ....    ....

Verse pt. 2
e|---------------------------------------|
B|---------------------------------------|
G|-5-5555--7-7777--9-9999--10-10101010---|
D|-5-5555--7-7777--9-9999--10-10101010---|
A|-3-3333--5-5555--7-7777---8--8-8-8-8---| X1
E|---------------------------------------|

e|--------------------------------------|
B|--------------------------------------|
G|-5-5555----------2-2222---------------|
D|-5-5555--5-5555--2-2222--3-3333-------|
A|-3-3333--5-5555--0-0000--3-3333-------| X1
E|---------3-3333----------1-1111-------|

Chorus:
e|--------------------------------------|
B|--------------------------------------|
G|-5-5555----------2-2222---------------|
D|-5-5555--5-5555--2-2222--3-3333-------|
A|-3-3333--5-5555--0-0000--3-3333-------| X1
E|---------3-3333----------1-1111-------|

e|-------------------------------------------|
B|-------------------------------------------|
G|-5-5555----------2-2222--------------------|
D|-5-5555--5-5555--2-2222--3-3333--5-5555----|
A|-3-3333--5-5555--0-0000--3-3333--5-5555----| X1
E|---------3-3333----------1-1111--3-3333----|

Interlude:
e|------------------------|
B|------------------------|
G|-5~-------2~------------|
D|-5~--5~---2~--3~--------|
A|-3~--5~---0~--3~--------| X2
E|-----3~-------1~--------|

Outro:
e|----------------------------------------------|
B|----------------------------------------------|
G|----------------------------------------------|
D|-----0-0-2------0-0-2------0-0-2------2-2-0---|
A|-3-3-------------------0-0--------------------|  X4
E|------------3-3-------------------1-1---------|

BLINK 182 ROCKS!!!!! Any Comments....Mail me
Comments