Blink 182 - Dammit Live Chords & Tabs

 

Dammit Live Chords & Tabs

Blink 182 Chords & Tabs

Version: 1 Type: Bass Tab 0 ratings
1 star 2 stars 3 stars 4 stars 5 stars
comments

Dammit Live Bass Tab

Dang it (live) on K-ROQ (I thinks that the place)
Tabbed by Josh (sumpunk87@expn.com)

Like my ramones tab I find a lot of my live stuff off Kazaa there is a lot of 
live versions for this song but this is the one I have
[ Tab from: http://www.guitartabs.cc/tabs/b/blink_182/dammit_live_btab.html ]
Intro – tom says “this song is about your girlfriend”
G----------------------|--|-----------------------------------
D----------------------|--|-----------------------------------
A-4--------------------|x2|-4-4-4-4---------------------------
E-------4------6-----2-|--|---------4-4-4-4--6-6-6-6--2-2-2-2-

Verse
G-----------------------------------
D-----------------------------------
A-4-4-4-4---------------------------
E---------4-4-4-4—-6-6-6-6—-2-2-2-2-

Chorus (same as verse)
G-----------------------------------
D-----------------------------------
A-4-4-4-4---------------------------
E---------4-4-4-4—-6-6-6-6—-2-2-2-2-
Comments