Blink 182 - Carousel Chords & Tabs

 

Carousel Chords & Tabs

Blink 182 Chords & Tabs

Version: 18 Type: Tab 0 ratings
1 star 2 stars 3 stars 4 stars 5 stars
comments

Carousel Tab

   
Blink 182
Carousel 
From : Cheshire Cat 1995
Note: I got this from another site, I bet it was OLGA, but I don't remember, 
but it's right

Intro(x2)
Guitar 1 (Clean) 
---------------------------------------------------------------
---------------------------------------------------------------
---------------------------------------------------------------
--7-7-7-5-5-5-4--7-7-7-5-5-5-4--5-5-5-4-4-4--------------------
--------------------------------------------7-7-4-4-4-5-5-5-7--
---------------------------------------------------------------


---------------------------------------------------------------
---------------------------------------------------------------
---------------------------------------------------------------
--5-5-5-4-4-4----5-5-5-4-4-4----5-5-5-4-4-4----5-5-5-4-4-4-----
--------------7--------------7--------------5--------------5---
---------------------------------------------------------------

(Rhythm)Guitar 2 With Fuzz Box
(Lead)Guitar 3 With Fuzz Box
 D5 / / / / / / / /| / / / / / / / /|A5 / / / / / / / /| / / / / / / / /|
|------------------|----------------|------------------|----------------|
|------------------|----------------|------------------|----------------|
|------------------|----------------|------------------|----------------|
|------------------|----------------|4--5--5-5-5-4-4-4-|----------------|
|------------------|----------------|------------------|--7-------------|
|------------------|----------------|------------------|------5---------|


 B5 / / / / / / / /| / / / / / / / /|G5 / / / / / / / /| / / / / / / / /|
|------------------|----------------|------------------|----------------|
|------------------|----------------|------------------|----------------|
|------------------|----------------|------------------|----------------|
|------------------|----------------|4--5--5-5-5-4-4-4-|----------------|
|------------------|----------------|------------------|--7---5---------|
|------------------|----------------|------------------|----------------|

Solo x2 (:28)

----------------------------------------------------------------------
----------------------------------------------------------------------
----------------------------------------------------------------------
----4-4-5-7-5-4-------------------------------------------55---55--5--
--5-------------5-----4-4-5-7-5-4------7-7-9-10-10-9-9----55---55--5--
-------------------5--------------5--7------------------3----3----3---

Intro 2nd Part (:42)
Clean

Chord Names Only... Listen To Song For Exact Rhythm
Note: The 5th and Octave in the power chord seem to be more prominent

D5////:A5////:B5////:G5////:

Repeated 4 Times Then 
Played 2 Times At
Tempo Change With 'Super Distortion'.


3rd Part Of Intro (1:05)
[ Tab from: http://www.guitartabs.cc/tabs/b/blink_182/carousel_tab_ver_18.html ]
Guitar 1 (x2)
-----------------------------------------------------------------
-----------------------------------------------------------------
-----------------------------------------------------------------
4-4-4-4-4-4-4-4-2-2-2-2-2-2-2-2-4-4-4-4-4-4-4-4-0-0-2-2-0-0------
------------------------------------------------------------4-4--
-----------------------------------------------------------------

Guitar 2 and 3
|D5////////////////////////////            x2, rhythm slightly dif. 2nd time
|-----------------------------------------
|-----------------------------------------
|-----------------------------------------
|--0~--------2-0-0-00-00--2-0-----0-------
|-------------------------------4---------
|-----------------------------------------

4th Part of Intro (1:15)
Guitar 2 & 3 
Play as follows: a , b , a , c
Note: not positive about c but sounds right

 a                            b         
|----------------------------|------------------------------
|----------------------------|------------------------------
|----------------------------|------------------------------
|--4--4--4/5/4--2--2-2--2--2-|-4--4--4/5/4--7-7--5--4--2----
|----------------------------|------------------------------
|----------------------------|------------------------------

 c
|--------------------------------------
|--------------------------------------
|--------------------------------------
|--0-0-4-0-5-0-4-0-0-0-4-0-5/7/5-4-0---
|--------------------------------------
|--------------------------------------



Verse (1:25)

Same Chord Proggression D5, A5, B5, G5, With Fuzz Box (x2)
Then... Over The Chord Proggression
Note: Notes In Parenthesis Can Be Substituted For The Other 
If You Wish, Both Fit The Chord, And Isn't Clear Which Note Is Hit
----------------------------------------------------------------------
----------------------------------------------------------------------
--11-------11-------11-----9------9------9/-----11------11------11----
-----12-12----12-12---12-----7-7----7-7----7/------9-9-----9-9-----9--
----------------------------------------------------------------------
----------------------------------------------------------------------




----------------------------------------------------
----------------------------------------------------
----------------------------------------------------
--12------------------12-----------------12---------
------10(12)--10(12)-----10(12)--10(12)-----10(12)--
----------------------------------------------------

Chorus Proggression (1:44)
|D5////|E5////|A5////|G5////| x4
Pause On 4th Time With A5 Then Hit G5 3 Times Really Hard


Break (2:02)
Same " a , b , a , c " Figure As In Intro

Verse 2 (2:12)
Chord Proggression x2
Then 2 More Times Clean 
(With Bass More Prominent)

Solo (2:30) 4x
--------------------------------------------------------------
--------------------------------------------------------------
--------------------------------------------------------------
----4-5-7-5-4-------------------------------------------------
--5-----------5----4-5-7-5-4------6-7-9-7-6------2-3-5-3-2----
-----------------5-----------5--7-----------7--3-----------3--

Repeat Chorus (2:48)

End With D5 :)
Comments