Blink 182 - Carousel Chords & Tabs

 

Carousel Chords & Tabs

Blink 182 Chords & Tabs

Version: 16 Type: Tab 0 ratings
1 star 2 stars 3 stars 4 stars 5 stars
comments

Carousel Tab

   
------------------------------------------------------------
Blink182 - Carousel
Cheshire cat version
First part on guitar (distortion) listen to the song to find out which part is PM
Then the pre solo is on Bass, but I put it on guitar so you better listen to the song for 
timing and shit, eat away
------------------------------------------------------------
Distortion
E|------------------------------------------
B|------------------------------------------
G|-7-----------------4----------------------
D|-7-4/5-5-5-4-4/2---4-4/5-5-5-4-2-0------0-
A|-5-----------------2----------------4/5---
E|------------------------------------------
[ Tab from: http://www.guitartabs.cc/tabs/b/blink_182/carousel_tab_ver_16.html ]
First bit(775) open once then palm mute then play the singles open (obviously)and the 
same with 442 etc… Now this bit is played on a bass guitar but I don’t have a bass, so 
I put it on electric

Clean
E|-------------------------------------------------------- 
B|-------------------------------------------------------- 
G|-------------------------------------------------------- 
D|----44-5-7-5-4-----00-2-4-2-0-----00-4-5-5-4-0---0---3--
A|0-5-----------------------------------------------------
E|---------------0-5------------0-7--------------3---3---- 
X2 but 2nd time strum D open till it comes to:-

E|---------
B|---------strumming 
G|---------single
D|-4-2-4-0-string
A|---------
E|---------
email me if you have anything to question me about alright?callum117@hotmail.com
Comments