Blink 182 - Carousel Chords & Tabs

 

Carousel Chords & Tabs

Blink 182 Chords & Tabs

Version: 15 Type: Tab 0 ratings
1 star 2 stars 3 stars 4 stars 5 stars
comments

Carousel Tab

Intro:

e|-----------------------------------------------------------------|
B|-----------------------------------------------------------------|
G|---(palm mute)-----------------------(palm mute)-----------------| (x2)
D|-77777777777777---4h5-5-4-2---2h4-44444444444444---4h5-5-4-2-0---|
A|-55555555555555-------------------22222222222222-----------------|
E|-----------------------------------------------------------------|

Bass Solo:
                                                
G|----11-11-12-14-12-11----------------------|
D|-0-----------------------11-11-12-14-12-11-|
A|----------------------0--------------------|
E|-------------------------------------------|

first ending for bass solo:

G|---9-9-11-12-11-9-11-----7-----7---7----------------|
D|-9-------------------5-5---5-5---5------------------|
A|--------------------------------------------------|
E|--------------------------------------------------|

second ending for bass solo:

G|---9-9-11-12-12-11-11-----7-----7---7-------------|
D|-9--------------------5-5---5-5---5---------------|
A|--------------------------------------------------|
E|--------------------------------------------------|

bass solo 2:

G|-9-9-9-11-11-11---11-11-11-9-9-9-999-11-11-11-11-11-11--77-------|
D|-----------------------------------------------------------------|
A|-----------------------------------------------------------------|
E|-----------------------------------------------------------------|

The 3rd time you play the bass solo 2, the reg guitar does this: (palm mute)

e|------------------------------------------------------|
B|------------------------------------------------------|
G|-xxxx-7-7-xxxx-9-9-xxxx-11-11-xxxx-7-7----------------|
D|------------------------------------------------------|
A|------------------------------------------------------|
E|------------------------------------------------------|

e|------------------------------------------------------|
B|------------------------------------------------------|
G|-xxxx-7-7-xxxx-----xxxx-----xxxx----------------------|
D|---------------7-7------9-9------5-5------------------|
A|------------------------------------------------------|
E|------------------------------------------------------|

immediately after that:
i cant get the rythm right.
e|------------------------------------------------------|
B|------------------------------------------------------|
G|-77777777---------------------------------------------|
D|-7777777777777777-99999999/-12-12-12-12-12-12-12-12---|
A|-5555555577777777-99999999/-10-10-10-10-10-10-10-10---|
E|---------55555555/77777777/---------------------------|

immediately after that:

e|------------------------------------------------------------|
B|------------------------------------------------------------|
G|------------------------------------------------------------|
D|------------------------------------------------------------|
A|-4h5-5--4h5-5-5-5-5-55-77-55-44-5-4-444-555-777-4-5-7-5-4---|
E|------------------------------------------------------------|
[ Tab from: http://www.guitartabs.cc/tabs/b/blink_182/carousel_tab_ver_15.html ]
e|------------------------------------------------------------|
B|------------------------------------------------------------|
G|------------------------------------------------------------|
D|-4-44-4h5-2-2222222-4-444h5p4-77-55-44-22-4-444h5p4-2-222---|
A|------------------------------------------------------------|
E|------------------------------------------------------------|

e|-----------------------------------------------|
B|-----------------------------------------------|
G|-----------------------------------------------|
D|-2h4p2-0-5-0-4p5-0-2-0-4-5-0-0-0---------------|
A|-----------------------------------------------|
E|-----------------------------------------------|

Verse 1

e|------------------------------------------------------|
B|------------------------------------------------------|
G|-7xx77777---------------------------------------------|
D|-7xx777777xx77777-9xx99999-5xx55555-------------------|<--------(x4)
A|-5xx555557xx77777-9xx99999-5xx55555-------------------|
E|---------5xx55555/7xx77777\3xx33333-------------------|
(talk to you)

on the third time that you play verse 1, you play with it (guitar 2)
(if you can pick it right and fast enuff. the "11" is an eleven, not 2 1's)
e|----------------------------------------------------------------------|
B|----------------------------------------------------------------------|
G|-11--11--11-9--9--9-11--11--11-7--7--7-------------x2-----------------|
D|---00--00--0-77-77-7--99--99--9-55-55-5-------------------------------|
A|----------------------------------------------------------------------|
E|----------------------------------------------------------------------|

chorus:

e|------------------------------------------------------|
B|------------------------------------------------------|
G|-7777777799999999-------------------------------------|
D|-7777777799999999-77777777-55555555-------------------|<--------(x4)
A|-5555555577777777-77777777-55555555-------------------|
E|------------------55555555\33333333-------------------|
(just u wait and seeeeee)

Verse 2:

e|------------------------------------------------------|
B|------------------------------------------------------|
G|-7xx77777---------------------------------------------|
D|-7xx777777xx77777-9xx99999-5xx55555-------------------|<--------(x2)
A|-5xx555557xx77777-9xx99999-5xx55555-------------------|
E|---------5xx55555/7xx77777\3xx33333-------------------|
(now when i walk down the street)

e|------------------------------------------------------|
B|------------------------------------------------------|
G|-7----------------------------------------------------|
D|-7-(let it ring)--------------------------------------|
A|-5----------------------------------------------------|
E|------------------------------------------------------|
(a tank of gas is a treasure to me)

solo (hard part. pretty quick):

e|-----------------------------------------------------|
B|-----------------------------------------------------|
G|-----------------------------------------------------|
D|--45754---------------12421--------------------------|<----(x4)
A|-5----------45754----2---------23532-----------------|
E|-----------5------------------3----------------------|
Comments