Blink 182 - Carousel Chords & Tabs

 

Carousel Chords & Tabs

Blink 182 Chords & Tabs

Version: 1 Type: Tab 0 ratings
1 star 2 stars 3 stars 4 stars 5 stars
comments

Carousel Tab

s - Slide

E---------------------------------------------
B---------------------------------------------
G---------------------------------------------------------------------------
D----------------------------------------------------------------------------------------------------
A-- 11- 11-12-14 12 11-------    6 6 7 9 7 6---------------------------------------------------
E 0-------------------------12--s--7------------- 7 s-9-

[ Tab from: http://www.guitartabs.cc/tabs/b/blink_182/carousel_tab.html ]
E-----9----------------------------------------------------------------------------
B----9-------------------------------------------------------------------------------
G--9-(bar entire fret here)---------------------------------------------------------------------------
D-9---------------------------------------------------------------------------------
A9------------------------9 9 11 12 11 9 11-----------    -7--------    7---------7------
E9 ------------------------------------------------------55-------55 ---------5----------

ok thats it. the strumming goes like this. 

7	7	9	10
7	9	9	12
9 (x4)	9 (x4)	11 (x4)	12 (x4)
9	7	11	10
7	7	9	10
7	7	9	10

the strumming goes down up down down for this bit then after a while it goes on heavy distortion and is the same as the above only with  4 downstrokes in pairs if u get me.

thats all i can be arsed wit just now but believe me that is the right way!

any questions or queries mail me at swifty_g@hotmail.com

BLINK 182 RULE

SAVE CHIP

Comments