Blink 182 - Carousel Live Chords & Tabs

 

Carousel Live Chords & Tabs

Blink 182 Chords & Tabs

Version: 3 Type: Tab 0 ratings
1 star 2 stars 3 stars 4 stars 5 stars
comments

Carousel Live Tab

blink 182,carousel (as played live).
Tabbed by dougie B,Blinkme1820@aol.com.
  
Intro 1:        x 2
G:-----11-11-12-14-12-11----------------------------------9-9-11-12-11-9-11----------
D:-12-----------------------------11-11-12-14-12-11----9------------------------12-12-
A:-----------------------------12-----------------------------------------------------------
E:-------------------------------------------------------------------------------------------
Intro 2:        x 2
G:--11-11-11\9-9-9/11-11-11\7-7-7-
D:-------------------------------------
A:-------------------------------------
E:-------------------------------------
[ Tab from: http://www.guitartabs.cc/tabs/b/blink_182/carousel_live_tab_ver_3.html ]
Intro 3:        x 1
G:--14-14-14\9-9-9/11-11-11\7-7-7-----11-11-11\9-9-9/11-11-11\7-7-7--
D:-----------------------------------------------------------------------------
A:-----------------------------------------------------------------------------
E:-----------------------------------------------------------------------------
Intro 4:        x 4
G:--7-7-7-7---------------------------------
D:------------7-7-7-7--9-9-9-9--5-5-5-5--
A:-------------------------------------------
E:-------------------------------------------
verse: 
G:------------------------------------------------------------------- 
D:------------------------------------------------------------------- 
A:-5-5-5-5-5-5-5--------------------------------------------------- 
E:------------------5-5-5-5-5-5-5--7-7-7-7-7-7-7--3-3-3-3-3-3-3--- 

Chorus:    (just you wait and see....)
G:------------------------------------------------------------ 
D:------------------------------------------------------------ 
A:-5-5-5-5-5-5--7-7-7-7-7-7------------------------------- 
E:-------------------------------5-5-5-9-7-5--3-3-3-7-5-3- 

Bridge:    x 2
G:-------------------------------------- 
D:-------------------------------------- 
A:-5---------5------------------------- 
E:---5--7--3---5--7-7-7-7--3-3-3-3-- 
 
:: Ultimate Guitar Archive :: 
http://www.ultimate-guitar.com
Comments