Blink 182 - Carousel Live Chords & Tabs

 

Carousel Live Chords & Tabs

Blink 182 Chords & Tabs

Version: 2 Type: Tab 0 ratings
1 star 2 stars 3 stars 4 stars 5 stars
comments

Carousel Live Tab

   
BLINK -182-
"Carousel"
Originally from "Buddha"
Live Version from "Mark, Tom, and Travis Show"
Tabbed by: Sam Elderfield
CONTACT: sam_2929@hotmail.com

i'd like to take this time and say that blink 182 sucks.. but their music
is easy to play and a beginner can make good use of this tab.

okay.. here's how i play carousel, it sounds good and i think it's all correct..  
have fun with this.
here might be tinnnny little mistakes i've made but you can figure them out by ear..


Intro x2 (this is actually played differently by mark on bass, clean 
but this tab here on clean guitar sounds great)
e----------------------------------------------------------------------------
b----------------------------------------------------------------------------
g----------------------------------------------------------------------------
d---4-4-5-7-5-4--------------------------------------------------------------
a-5-------------5----4-4-5-7-5-4-----7-7-8-10-10-9-9------5----5-----5---5-5-
E-----------------5--------------5-7------------------3-3---3-3--3-3---3-----


okay this next part here is fast up/down stroking, still bass..  
this is NOT correct for bass, but the bass tab 
sounds bad on guitar and this sounds good on clean guitar

play this 2x
e-----------------------------
b-----------------------------
g-----------------------------
d-----------------------------
a-9--x7--7--x6--9--x6--5--x6--
E-7------5------7------3------


in the 2 versions of the song this next part here differs.. 
in the original from buddha it just plays the above riff again.. 
in the live version from the mark, tom, and travis show it plays this, 
which is a lot better sounding in my opinion.. not 100% sure on my x#'s

e-------------------------------------------------------------------
b-------------------------------------------------------------------
g-------------------------------------------------------------------
d-------------------------------------------------------------------
a-5--x7--7--x6--9--x6--10--x6--10--x3?--9--x6--7--x6--5--x6--4--x5?-
E-3------5------7------8-------8--------7------5------3------2------

okay now tom breaks in with the distorted guitar with easy ass power chords
i'm not gonna write down the # of strokes but its not hard to find out
this is played 2x
e-----------------------
b-----------------------
g--7--------------------
d--7-----7-----9-----5--
a--5-----7-----9-----5--
E--------5-----7-----3--
[ Tab from: http://www.guitartabs.cc/tabs/b/blink_182/carousel_live_tab_ver_2.html ]
this part has been tabbed many different ways, here's how it sounds 
to me and sounds good when i play it
e----------------------------------------------------
b----------------------------------------------------
g----------------------------------------------------
d----------------------------------------------------
a----4-5-4-5-5-5-5-5-5-7-5-4-4h5-4-4-5-7-5-4-5-7-5-4-
E----------------------------------------------------

e------------------------------------------------------------------------------------------
b------------------------------------------------------------------------------------------
g------------------------------------------------------------------------------------------
d--4-4-4-4-5-2-2-2-2-2-4-4-4-5-4-7-7-5-4-2-4-4-4-5-2-2-2-2-2-0-0h4h5-0-0-2-0-0h4h5-0-0-2-0-
a------------------------------------------------------------------------------------------
E------------------------------------------------------------------------------------------

aight now this is the verse riff just repeat this until the chorus
e-----------------------
b-----------------------
g--7--------------------
d--7-----7-----9-----5--
a--5-----7-----9-----5--
E--------5-----7-----3--

chorus 
e-----------------------
b-----------------------
g--7-----9--------------
d--7-----9-----9-----5--
a--5-----7-----9-----5--
E--------------7-----3--

after the first chorus, play this again.. 
"i guess it's just another night alone........"
e------------------------------------------------------------------------------------------
b------------------------------------------------------------------------------------------
g------------------------------------------------------------------------------------------
d--4-4-4-4-5-2-2-2-2-2-4-4-4-5-4-7-7-5-4-2-4-4-4-5-2-2-2-2-2-0-0h4h5-0-0-2-0-0h4h5-0-0-2-0-
a------------------------------------------------------------------------------------------
E------------------------------------------------------------------------------------------

keep goin at this until it obviously stops on the track and you're ready for the solo
e-----------------------
b-----------------------
g--7--------------------
d--7-----7-----9-----5--
a--5-----7-----9-----5--
E--------5-----7-----3--

okay many people tab this solo differently but this sounds perfect and its very easy
sometimes i experiment with using hammer-ons here and it sounds great so maybe you want to.
play this 4x VERY FAST..
e------------------------------------------------
b------------------------------------------------
g------------------------------------------------
d---4-5-7-5-4------------------------------------
a-5-------------4-5-7-5-4---6-7-9-7-6--2-3-5-3-2-
E-------------5-----------7-----------3----------

then back into the verse riff..
e-----------------------
b-----------------------
g--7--------------------
d--7-----7-----9-----5--
a--5-----7-----9-----5--
E--------5-----7-----3--

end on 

e---
b---
g-7-
d-7-
a-5-
E---

alrgihts i hope you make some use of this tab.. if you don't like it, there's
plenty of other ones you can follow.. 
peace
Comments