Blink 182 - Carousel Chords & Tabs

 

Carousel Chords & Tabs

Blink 182 Chords & Tabs

Version: 9 Type: Bass Tab 0 ratings
1 star 2 stars 3 stars 4 stars 5 stars
comments

Carousel Bass Tab

   
Song:Carousel
Band:Blink 182
Album:Bhudda, Cheshire Cat, The Enema Strikes Back (live Show)
By:FutureShooter
E-mail:Futureshooter69@hotmail.com

The song varies from album to alubm so listen for any diferences.

~ = Let ring /= slide between

Intro p1:Cheshire Cat starts here
G:14-14-14-12-12-12-11-11-14-14-14-12-12-12-11-11-6-6-6-7-7-7-9-9-6-6-6-7-7-7-9-9-
D:0--0--0--0--0--0--0--0--0--0--0--0--0--0--0--0--0-0-0-0-0-0-0-0-0-0-0-0-0-0-0-0-
A:--------------------------------------------------------------------------------
E:--------------------------------------------------------------------------------

G:12-12-12-11-11-11-9-9-12-12-12-11-11-11-9-9-6-6-6-7-7-7-9-9-6-6-6-7-7-7-9-9-|
D:0--0--0--0--0--0--0-0-0--0--0--0--0--0--0-0-0-0-0-0-0-0-0-0-0-0-0-0-0-0-0-0-| x2
A:----------------------------------------------------------------------------|
E:----------------------------------------------------------------------------|


Intro p2:Bhudda And live show start here
G:--11-11-12-14-12-11-----6-6-7-9-7-6---9-9-11-12-11-9-11-777-77-7777|
D:0~------------------12/7~----------7/9~-----------------555-55-5555|
A:-------------------------------------------------------------------| x2
E:-------------------------------------------------------------------|

[ Tab from: http://www.guitartabs.cc/tabs/b/blink_182/carousel_btab_ver_9.html ]
Bridge:
G:11-11-11-11-9-9-9-9-11-11-11-11-7-7-7-7|
D:0--0--0--0--7-7-7-7-9--9--9--9--5-5-5-5| x6 follow the change after the 4th time
A:---------------------------------------|
E:---------------------------------------|

Verse:
G:--------------------------------------------------------------------------------------------|
D:--------------------------------------------------------------------------------------------| x4
A:5-5-5-5-5-5-0-0-0-0-0-0-2-2-2-2-2-2-----------5-5-5-5-5-5-0-0-0-0-0-0-2-2-2-2-2-2-----------|
E:------------------------------------3-3-3-3-3-3-----------------------------------10-12-10-9|

Corus:
G:------------------------------------------------|
D:------------------------------------------------| x4
A:5-5-5-5-5-5-7-7-7-7-7-7-0-0-0-0-0-0-------------|
E:------------------------------------3-3-3-3-3-3-|

Stopage:

verse:
bridge:x2

Stopage bridge:
G:------------------------------------------------|
D:------------------------------------------------|
A:5----0----2--------5----0----2-2-2-2-10-12-10-9-|
E:---------------3--------------------------------|

Verse x1
Courusx4
End on A:5


There you go a sweet song which is great to play let me know if anything 
is wrong with it e-mail at top of page.


Thrid try are a kick ass band who arn't signed to a lable listen to the music first by 
searching  for them on napster, Viva la resistance!
Comments