Blink 182 - Cacophony Chords & Tabs

 

Cacophony Chords & Tabs

Blink 182 Chords & Tabs

Version: 9 Type: Tab 0 ratings
1 star 2 stars 3 stars 4 stars 5 stars
comments

Cacophony Tab

   
Cacophony - Blink 182
Album - Cheshire Cat
Standard Tuning (eadgbe)
Tabbed By Ben Pauley (benpauley@aol.com)

Intro: Bass Only

e-----------------------------------------|
b-1-1-1-1-1-6-6-5-1-1-1-3-1-1-1-3-1-1-0-1-|
g-----------------------------------------|
d-----------------------------------------|     X2
a-----------------------------------------|
e-----------------------------------------|

Chorus:
e-----------------------------------------------------------------------------------------|
b-----------------------------------------------------------------------------------------|
g----------------------------------------------------5-5--7-7-7-7-7-7---------------------|
d-7-7-7-7-7-7-7-7--3-3-3-3-3-3-3-3--7-7-7-7-7-7-7-7--5-5--7-7-7-7-7-7--3-3-3-3-3-3-3-3-3--|
a-7-7-7-7-7-7-7-7--3-3-3-3-3-3-3-3--7-7-7-7-7-7-7-7--3-3--5-5-5-5-5-5--3-3-3-3-3-3-3-3-3--|
e-5-5-5-5-5-5-5-5--1-1-1-1-1-1-1-1--5-5-5-5-5-5-5-5--------------------1-1-1-1-1-1-1-1-1--|

Back To Intro:
e-----------------------------------------|
b-1-1-1-1-1-6-6-5-1-1-1-3-1-1-1-3-1-1-0-1-|
g-----------------------------------------|
d-----------------------------------------|
a-----------------------------------------|
e-----------------------------------------|

Verse 1:
e---------------------------------|
b---------------------------------|
g---------------------------------|
d-----0-------0---0-2-3---3-5-3-2-|     X4
a---3---3---3---3-------3---------|
e-0-------0-----------------------|

Chorus:
e-----------------------------------------------------------------------------------------|
b-----------------------------------------------------------------------------------------|
g----------------------------------------------------5-5--7-7-7-7-7-7---------------------|
d-7-7-7-7-7-7-7-7--3-3-3-3-3-3-3-3--7-7-7-7-7-7-7-7--5-5--7-7-7-7-7-7--3-3-3-3-3-3-3-3-3--|
a-7-7-7-7-7-7-7-7--3-3-3-3-3-3-3-3--7-7-7-7-7-7-7-7--3-3--5-5-5-5-5-5--3-3-3-3-3-3-3-3-3--|
e-5-5-5-5-5-5-5-5--1-1-1-1-1-1-1-1--5-5-5-5-5-5-5-5--------------------1-1-1-1-1-1-1-1-1--|

Back To Intro:
e-----------------------------------------|
b-1-1-1-1-1-6-6-5-1-1-1-3-1-1-1-3-1-1-0-1-|
g-----------------------------------------|
d-----------------------------------------|
a-----------------------------------------|
e-----------------------------------------|


Verse 2: Do the same as Verse 1
e---------------------------------|
b---------------------------------|
g---------------------------------|
d-----0-------0---0-2-3---3-5-3-2-|     X4
a---3---3---3---3-------3---------|
e-0-------0-----------------------|
[ Tab from: http://www.guitartabs.cc/tabs/b/blink_182/cacophony_tab_ver_9.html ]
Chorus:
e----------------------------------------------------------------------------------------|
b----------------------------------------------------------------------------------------|
g----------------------------------------------------5-5--7-7-7-7-7-7--------------------|
d-7-7-7-7-7-7-7-7--3-3-3-3-3-3-3-3--7-7-7-7-7-7-7-7--5-5--7-7-7-7-7-7--3-3-3-3-3-3-3-3-3-|
a-7-7-7-7-7-7-7-7--3-3-3-3-3-3-3-3--7-7-7-7-7-7-7-7--3-3--5-5-5-5-5-5--3-3-3-3-3-3-3-3-3-|
e-5-5-5-5-5-5-5-5--1-1-1-1-1-1-1-1--5-5-5-5-5-5-5-5--------------------1-1-1-1-1-1-1-1-1-|

Prelude To Verse 3:
e------------------------------------------------------------------|
b------------------------------------------------------------------|
g-5-5-5-5-5-5-5-5-5-5-5-5-5-5-5-5----------------------------------|
d-5-5-5-5-5-5-5-5-5-5-5-5-5-5-5-5--3-3-3-3-3-3-3-3-3-3-3-3-3-3-3-3-|     X2
a-3-3-3-3-3-3-3-3-3-3-3-3-3-3-3-3--3-3-3-3-3-3-3-3-3-3-3-3-3-3-3-3-|
e----------------------------------1-1-1-1-1-1-1-1-1-1-1-1-1-1-1-1-|

Verse 3:
e-------------------------------------------------------------------|
b-------------------------------------------------------------------|
g-5-5-5-5-5-5-5-5---------------------------------------------------|
d-5-5-5-5-5-5-5-5--7-7-7-7-7-7-7-7--3-3-3-3-3-3-3-3-3-3-3-3-3-3-3-3-|     X4
a-3-3-3-3-3-3-3-3--7-7-7-7-7-7-7-7--3-3-3-3-3-3-3-3-3-3-3-3-3-3-3-3-|
e------------------5-5-5-5-5-5-5-5--1-1-1-1-1-1-1-1-1-1-1-1-1-1-1-1-|

Back To Prelude To Verse 3
e------------------------------------------------------------------|
b------------------------------------------------------------------|
g-5-5-5-5-5-5-5-5-5-5-5-5-5-5-5-5----------------------------------|
d-5-5-5-5-5-5-5-5-5-5-5-5-5-5-5-5--3-3-3-3-3-3-3-3-3-3-3-3-3-3-3-3-|     X2
a-3-3-3-3-3-3-3-3-3-3-3-3-3-3-3-3--3-3-3-3-3-3-3-3-3-3-3-3-3-3-3-3-|
e----------------------------------1-1-1-1-1-1-1-1-1-1-1-1-1-1-1-1-|

Verse 4:

e----------------------------------------|
b----------------------------------------|
g-9-9-9-9--10-10-10-10--5-5-5-5----------|
d-9-9-9-9--10-10-10-10--5-5-5-5--5-5-5-5-|    X3
a-7-7-7-7--8--8--8--8---3-3-3-3--5-5-5-5-|
e--------------------------------3-3-3-3-|

Verse 4 Continued:
e--------------------------------------------|
b--------------------------------------------|
g-9-9-9-9--10-10-10-10--5-5-5-5--10-10-10-10-|
d-9-9-9-9--10-10-10-10--5-5-5-5--10-10-10-10-|
a-7-7-7-7--8--8--8--8---3-3-3-3--8--8--8--8--|
e--------------------------------------------|

Back To Prelude Verse 3:
e------------------------------------------------------------------|
b------------------------------------------------------------------|
g-5-5-5-5-5-5-5-5-5-5-5-5-5-5-5-5----------------------------------|
d-5-5-5-5-5-5-5-5-5-5-5-5-5-5-5-5--3-3-3-3-3-3-3-3-3-3-3-3-3-3-3-3-|     X4
a-3-3-3-3-3-3-3-3-3-3-3-3-3-3-3-3--3-3-3-3-3-3-3-3-3-3-3-3-3-3-3-3-|
e----------------------------------1-1-1-1-1-1-1-1-1-1-1-1-1-1-1-1-|

Back To Chorus:
e----------------------------------------------------------------------------------------|
b----------------------------------------------------------------------------------------|
g----------------------------------------------------5-5--7-7-7-7-7-7--------------------|
d-7-7-7-7-7-7-7-7--3-3-3-3-3-3-3-3--7-7-7-7-7-7-7-7--5-5--7-7-7-7-7-7--3-3-3-3-3-3-3-3-3-|
a-7-7-7-7-7-7-7-7--3-3-3-3-3-3-3-3--7-7-7-7-7-7-7-7--3-3--5-5-5-5-5-5--3-3-3-3-3-3-3-3-3-|
e-5-5-5-5-5-5-5-5--1-1-1-1-1-1-1-1--5-5-5-5-5-5-5-5--------------------1-1-1-1-1-1-1-1-1-|

End On:
e--------------|
b--------------|
g-4-4-4-4-4--5-|
d-x-x-x-x-x--x-|
a-2-2-2-2-2--3-|
e--------------|

Hi. I'm pretty sure most of this is correct.
Please rate it. Thanks!
Ben.
Comments