Blink 182 - Cacophony Chords & Tabs

 

Cacophony Chords & Tabs

Blink 182 Chords & Tabs

Version: 4 Type: Tab 0 ratings
1 star 2 stars 3 stars 4 stars 5 stars
comments

Cacophony Tab

   
Blink-182
Cacophony
Tabbed By: Blinker27
BLinkeR37@aol.com

I havent seen a very good tab for this
song in a long time. soooo... i tabbed
it from my hearing... hehehe... well
here it is!
H=Hammer
S=Slide

Intro, this would be played on bass but i put it
on guitar for fun.

E|-----------------------------------
B|-----------------------------------
G|-----------------------------------
D|-----------------------------------X2
A|-----3--------3--------7--------3--
E|-0-0---0--3-3---3--5-5---5--1-1---1


guitar comes in and plays with bass
bridge
E|-------------------------------------------------
B|-------------------------------------------------
G|-5-5--7--5-5--7--10-10-10--9-9-7--5-5--7--5-5-4-5
D|-x-x--x--x-x--x--x--x--x---x-x-x--x-x--x--x-x-x-x
A|-3-3--5--3-3--5--8--8--8---7-7-5--3-3--5--3-3-2-3
E|-------------------------------------------------


E|-------------------------------------------------
B|-------------------------------------------------
G|-5-5--7--5-5--7--10-10-10--9-9-7--5-5--7--5-5-4-5
D|-x-x--x--x-x--x--x--x--x---x-x-x--x-x--x--x-x-x-x
A|-3-3--5--3-3--5--8--8--8---7-7-5--3-3--5--3-3-2-3
E|-------------------------------------------------

Verse
im not too sure about this, its either
played on E and A, or A and D, i put it on E and 
A for this one though.
[ Tab from: http://www.guitartabs.cc/tabs/b/blink_182/cacophony_tab_ver_4.html ]
E|--------------------------------------
B|--------------------------------------
G|--------------------------------------
D|-------------------------------------- X4
A|-----3--------3--------7-h9------3---3
E|-0-0---0--3-3---3--5-5------5--1---1--


E|-----------------------------
B|-----------------------------
G|-----------------------------
D|-77777777--33333333--77777777
A|-77777777--33333333--77777777
E|-55555555--11111111--55555555


E|----------------------
B|----------------------
G|----------------------
D|-555-10-10-10-33333333
A|-555-10-10-10-33333333
E|-333-8--8--8--11111111

back to bridge and verse again.

This is when the song gets real fast,
im not really sure how to play this 
part but i think it goes something like
this...


E|------------------------------
B|------------------------------
G|--------444444-333333-444444-6
D|-444444-444444-333333-444444-6 X2
A|-444444-222222-111111-222222-4
E|-222222-----------------------


then when mark is like: Will there
ever be.. play this
E|--------------------im not sure 
B|--------------------how many times
G|-5555-6666------8888u play this
D|-5555-6666-6666-8888but just listen
A|-3333-4444-6666-6666to the song.
E|-----------4444-----


thats all i know!!!
I think the intro and bridge 
sound pretty nice.
email me at BLinkeR37@aol.com 
for questions and comments!


Comments