Blink 182 - Cacophony Chords & Tabs

 

Cacophony Chords & Tabs

Blink 182 Chords & Tabs

Version: 1 Type: Tab 3 ratings
1 star 2 stars 3 stars 4 stars 5 stars
comments

Cacophony Tab

   
this is blink 182 at their best so i tabbed it for u, this is the 
work of Rhys Jones a true blink fan so do not copy

[ Tab from: http://www.guitartabs.cc/tabs/b/blink_182/cacophony_tab.html ]
h = hammer-on
p= pull-off
Bass Intro.
G|------------------------------------|
D|-----------------------2------------|
A|-----3--------3----0-0---0------3---|
E|-0-0---0--3-3---3-----------1-1---1-|
 
Guitar Intro. Part 1
e|-------------------------------------------------|
B|-5--5---5-5-5h7-10-10-9-5--5-5h7-5-5-5h7-5-5-4-5-|
G|-------------------------------------------------|
D|-------------------------------------------------|
A|-------------------------------------------------|
E|-------------------------------------------------|
 
Part 2 
Chords 
e|----------------------------------|
B|----------------------------------|
G|-2---------2-----8-not sure----10-|
D|-2----3----2-----8--about------10-|
A|-0----3----0-----6-this one-----8-| on the 4th chord press up and down on it 
E|------1---------------------------|
 
Verse 
e|-------------------------------------|
B|-------------------------------------|
G|-------------------------------------|
D|---------------------2-2h3p2---------|
A|-----3--------3----0-------------3---|
E|-0-0---0--3-3---3------------1-1---1-|
 
Chorus
Part 2 of Intro as above
 
Next Part(You might call it an Interlude or Post-Chorus, it's broken into
          sections)
Section 1. x2
e|---------------------------------------------------|
B|---------------------------------------------------|
G|-5(strum quite a few times)------------------------|
D|--------------------------------2-3-3-3-3/5-5------|
A|--------------------------------2-3-3-3-3/5-5------|
E|--------------------------------0-1-1-1-1/3-3------|
 
Section 2. (Where Mark starts singing again)
Chords (Order of appearence)
            x4 +
e|------------------------------------------|  
B|------------------------------------------|
G|-5-5-5-5-5--2-2-2-2-2---------------------|
D|-5-5-5-5-5--2-2-2-2-2--3-3-3-3-3-3-3-3-3-3|
A|-3-3-3-3-3--0-0-0-0-0--3-3-3-3-3-3-3-3-3-3|
E|-----------------------1-1-1-1-1-1-1-1-1-1|
 
Section 3. (When Mark stops singing temporarily)
Just repeat Section 1. adding the following to the first bar:
e|------------------------|
B|------------------------|
G|-444(strum a few times)-|
D|------------------------|
A|------------------------|
E|------------------------|
 
Section 4. (Mark starts singing again)
Chords (Order of appearance)
e|----------------------------|
B|----------------------------|
G|-9----10----5-second time---|
D|-9----10----5-play this---5-|
A|-7-----8----3-with X's----5-|
E|--------------------------3-|
 
Section 5. (Mark stops singing temporarily again)
Just repeat Section 3.
        
Outro ("Sometimes I don't feel the...")
Chords (Order of appearance)
e|---------------------------------------------|
B|---------------------------------------------|
G|-2---------5-------adding-4-4-4-4-5-let ring-|
D|-2----3----5----3----------------------------|
A|-0----3----3----3----------------------------|
E|------1---------1----------------------------|

 
Comments