Blink 182 - Boring Chords & Tabs

 

Boring Chords & Tabs

Blink 182 Chords & Tabs

Version: 1 Type: Tab 0 ratings
1 star 2 stars 3 stars 4 stars 5 stars
comments

Boring Tab

-------------------------------------------------------------------------------			 SONG: Boring
ALBUM: Dude Ranch
BAND: Blink 182
TABBED BY: Rebecca Chen
-------------------------------------------------------------------------------

Intro:
e|---------------------------------------------------------------------------|
B|---------------------------------------------------------------------------|
G|---------------------------------------------------------------------------|
D|---------------------------------------------------------------------------|
A|-0-4-0-5--4p0----2----5-2p0------------------------------------------------|
E|--------------0----0-------------------------------------------------------|

Verse:
e|---------------------------------------------------------------------------|
B|---------------------------------------------------------------------------|
G|---------6-6-6---------7-7-7--9-9-9--6-6-6--7-7----------------------------|
D|--7-7-7--6-6-6--6-6-6--7-7-7--9-9-9--6-6-6--7-7----------------------------|
A|--7-7-7--4-4-4--6-6-6--5-5-5--7-7-7--4-4-4--5-5----------------------------|
E|--5-5-5---------4-4-4-------------------------------------------------|
[ Tab from: http://www.guitartabs.cc/tabs/b/blink_182/boring_tab.html ]
Chorus:
e|------------------------------------------------------------------------------|
B|------------------------------------------------------------------------------|
G|---------6-6-6---------7-7--9-9-9---------------------------------------------|
D|--7-7-7--6-6-6--6-6-6--7-7--9-9-9-(3x) then 4th time skip D and straight to E-|
A|--7-7-7--4-4-4--6-6-6--5-5--7-7-7---------------------------------------------|
E|--5-5-5---------4-4-4---------------------------------------------------------|

Verse 1x
Chorus 1x

Interlude:
e|--------------------------------------------------------------------------------|
B|--------------------------------------------------------------------------------|
G|-------------------------------------------------------------------------9--9---|
D|--7-7-7-7-6-6-6------------------------6-6-6-------------------------77--9--9---|
A|----------------7-7-7-7-7-7-7--5-5-5-5--------7-7-7-7-0-0-0-0-(4x)---77--7--7---|
E|---------------------------------------------------------------------55---------|

Outro:
e|---------------------------------------------------------------------------|
B|---------------------------------------------------------------------------|
G|---------6-6-6---------7-7--9----------------------------------------------|
D|--7-7-7--6-6-6--6-6-6--7-7--9----7-----------------------------------------|
A|--7-7-7--4-4-4--6-6-6--9-9--7----7-----------------------------------------|
E|--5-5-5---------4-4-4------------5-----------------------------------------|

===============================================================================
Questions, comments, email me at taxi-gurl@mbox.com.au

Harry Potter kicks arse...
Emma Watson, you're my hero.
Comments