Blink 182 - Ben Wah Balls Chords & Tabs

 

Ben Wah Balls Chords & Tabs

Blink 182 Chords & Tabs

Version: 2 Type: Bass Tab 0 ratings
1 star 2 stars 3 stars 4 stars 5 stars
comments

Ben Wah Balls Bass Tab

   
The tab that was on here was a bit off so i thought i'd take it in to my own
hand's to tab it myself. Im pretty sure this is 100% but the interlude might be
a bit off decide for your self ,have fun .  (p.s this is my first tab so go easy
on me.)  /bert/ Macleod.

intro (same as chourus)

g-7-7-7-7-7-7-7-7-7-7-7-7-7-7-7-7-7-7-7-7-7-7-7-7-11-11-11-9-7-7-7-7-7-7-7-7
d-0-0-0-0-0-0-0-0-5-5-5-5-5-5-5-5-0-0-0-0-0-0-0-0--9--9--9-7-0-0-0-0-0-0-0-0
a---------------------------------------------------------------------------
e---------------------------------------------------------------------------

-11-11-11-9-7-7-7-7-7-7-7-7-7-7-7-7---repeat a few times--------------------
--9--9--9-7-5-5-5-5-5-5-5-5-5-5-5-5-----------------------------------------
----------------------------------------------------------------------------
----------------------------------------------------------------------------
[ Tab from: http://www.guitartabs.cc/tabs/b/blink_182/ben_wah_balls_btab_ver_2.html ]
verse 
g---------------------------------------------------------------------------
d---------------------------------------------------------------------------
a-55555555------------------------------------------------------------------
e----------77777777-55555555-33333333 --------------------------------------


then
g---------------------------------------------------------------------------
d----7----------------------------------------------------------------------
a-555-5----9-----7-----5----------------------------------------------------
e-------777-7-555-5-333-3-----------------repeat a few times----------------

interlude
g---------------------------------------------------------------------------
d---7--7-7---------------------5--5-4-2-------------------------------------
a-55-55-5----9--9-9---7--7-7------------------------------------------------
e----------77-77-7--55-55-5--33-33------------------------------------------
( im not sure about this part but it sound's right )
Comments