Blink 182 - Asthenia Chords & Tabs

 

Asthenia Chords & Tabs

Blink 182 Chords & Tabs

Version: 5 Type: Tab 0 ratings
1 star 2 stars 3 stars 4 stars 5 stars
comments

Asthenia Tab

Artist: Blink 182
Song Title: Asthenia
Album: Blink 182
Tuning: Standard

*= Palm Mute

Intro
e-------------------------------------------
B--------7------------------7---------------
G--7----------7-----6-7----------7-----6-7--
D-----0----------0-------0----------0-------
A-------------------------------------------
E-------------------------------------------

Verse
e-------------------------------------------------------------------
B-------------------------------------------------------------------
G--7-7-7-7-7-7-7-7-6-6-6-6-6-6-6-6-4-4-4-4-4-4-4-4-6-6-6-6-6-6-6-6--
D--0-0-0-0-0-0-0-0-0-0-0-0-0-0-0-0-0-0-0-0-0-0-0-0-0-0-0-0-0-0-0-0--
A--5-5-5-5-5-5-5-5-4-4-4-4-4-4-4-4-2-2-2-2-2-2-2-2-4-4-4-4-4-4-4-4--
E-------------------------------------------------------------------

Pre-Chorus
Guitar 1
e-------------------------------------------------------------------
B-------------------------------------------------------------------
G--7-7-6-6-7-7-9-9-7-7-6-6-7-7-9-9-7-7-6-6-7-7-9-9-7-7-6-6-7-7-9-9--
D--x-x-x-x-x-x-x-x-x-x-x-x-x-x-x-x-x-x-x-x-x-x-x-x-x-x-x-x-x-x-x-x--
A--5-5-4-4-5-5-7-7-5-5-4-4-5-5-7-7-5-5-4-4-5-5-7-7-5-5-4-4-5-5-7-7--
E-------------------------------------------------------------------

e-----------------------------------
B-----------------------------------
G--7-7-6-6-7-7-9-9-7-7-6-6----------
D--x-x-x-x-x-x-x-x-x-x-x-x-7-7-7-7--
A--5-5-4-4-5-5-7-7-5-5-4-4-5-5-5-5--
E-----------------------------------
                           * * * * 
Guitar 2
e-------------------------------------------------------------------
B-------------------------------------------------------------------
G--7-7-7-7-7-7-7-7-7-7-7-7-7-7-7-7----------------------------------
D--7-7-7-7-7-7-7-7-7-7-7-7-7-7-7-7-4-4-4-4-4-4-4-4-4-4-4-4-4-4-4-4--
A--5-5-5-5-5-5-5-5-5-5-5-5-5-5-5-5-4-4-4-4-4-4-4-4-4-4-4-4-4-4-4-4--
E----------------------------------2-2-2-2-2-2-2-2-2-2-2-2-2-2-2-2--

e-----------------------------------
B-----------------------------------
G-----------------------------------
D--5-5-5-5-5-5-5-5-5-5-5-5-7-7-7-7--
A--5-5-5-5-5-5-5-5-5-5-5-5-5-5-5-5--
E--3-3-3-3-3-3-3-3-3-3-3-3----------
                           * * * * 
Chorus
e----------------------------------------------------
B----------------------------------------------------
G----------------------------------------------------
D------4-4------4-4------4------4-4------------------
A----------------------------------------4-4------4--
E--2-2------3-3------3-3----5-5------5-5------5-5----
[ Tab from: http://www.guitartabs.cc/tabs/b/blink_182/asthenia_tab_ver_5.html ]
e-------------------------------------------
B-------------------------------------------
G-------------------------------------------
D------4-4------4-4------4------4-4---------
A----------------------------------------4--
E--2-2------3-3------3-3----5-5------5-5----

Interlude
e----------------------------------------------------------------------
B----------------------------------------------------------------------
G--7-7-7-7-7--7-7-7-7-7--7-7-7-7-7----7-7-7-7-7--7-7-7-7-7--7-7-7-7-7--
D--0-0-0-0-0--0-0-0-0-0--0-0-0-0-0----0-0-0-0-0--0-0-0-0-0--0-0-0-0-0--
A--5-5-5-5-5--5-5-5-5-5--5-5-5-5-5----5-5-5-5-5--5-5-5-5-5--5-5-5-5-5--
E----------------------------------------------------------------------

e-------------------------------------------------
B-------------------------------------------------
G--11-11-11-11-11--11-11-11-11-11--11-9-9-9-9-----
D--0--0--0--0--0---0--0--0--0--0---0--0-0-0-0-----
A--9--9--9--9--9---9--9--9--9--9---9--7-7-7-7-5~--
E-------------------------------------------------

e-----------------------------------
B-----------------------------------
G--7-7-7-7-7--7-7-7-7-7--7-7-7-7-7--
D--0-0-0-0-0--0-0-0-0-0--0-0-0-0-0--
A--5-5-5-5-5--5-5-5-5-5--5-5-5-5-5--
E-----------------------------------

e-------------------------------------------------
B-------------------------------------------------
G-------------------------------------------------
D--7-7-7-7-4-4-4-4h5-5-5-5\2-2-2-2-2-2-2-7-7-7-7--
A--5-5-5-5-------------------------------5-5-5-5--
E-------------------------------------------------
   * * * *                               * * * *
e------------------------------------------------
B------------------------------------------------
G------------------------------------------------
D----------4-4-4-4h5-5-5-5\2-2-2-2-2-2-2-7-7--7--
A--5-5-5-5-------------------------------5-5--5--
E--3-3-3-3---------------------------------------
   * * * *                               * *  *
e-------------------------------------------------
B-------------------------------------------------
G-------------------------------------------------
D--4-4-4-4-4-4-4-4h5-5-5-5\2-2-2-2-2-2-2-7-7-7-7--
A--5-5-5-5-------------------------------5-5-5-5--
E-------------------------------------------------
   * * * *                               * * * *
e--------------------------------------------------
B--------------------------------------------------
G-----------------------------------------------7--
D----------4-4-4-4h5-5-5-5\2-2-2-2-2-2-2-7-7--7-7--
A--5-5-5-5-------------------------------5-5--5-5--
E--3-3-3-3-----------------------------------------
   * * * *                               * *  * 

Thats it, you can figure out the order of everyhting yourself
Comments