Blink 182 - Asthenia Chords & Tabs

 

Asthenia Chords & Tabs

Blink 182 Chords & Tabs

Version: 2 Type: Bass Tab 0 ratings
1 star 2 stars 3 stars 4 stars 5 stars
comments

Asthenia Bass Tab

intro:
G|---------------------------------------------|
D|---------------------------------------------|
A|555555h777777--------------------------------|
E|-----------------------5h777777-55555--------|
verse 1: no bass
little bridge after before chorus:
G|---------------------------------------------|
D|-----------------444444-5-7-55555------------|
A|55555555-7-----------------------------------|
E|---------------------------------------------|
chorus:
G|---------------------------------------------|
D|---------------------------------------------|
A|-------------00000000-------------00000------|
E|-22-22-22-------------22-22-22---------------|

intro(x1)
verse 2: no bass
bridge before chorus(x1)
chorus(x1)
then bridge:
G|---------------------------------------------|
D|---------------------------------------------|
A|-5555555-------------------------------------|
E|-------------555555-333333-00000-3333--------|
chorus(x1)
intro(x1)
[ Tab from: http://www.guitartabs.cc/tabs/b/blink_182/asthenia_btab_ver_2.html ]
Comments