Blink 182 - Anthem Chords & Tabs

 

Anthem Chords & Tabs

Blink 182 Chords & Tabs

Version: 8 Type: Tab 0 ratings
1 star 2 stars 3 stars 4 stars 5 stars
comments

Anthem Tab

Anthem
Blink 182
Tabbed by Ben

This is an awesome song and this tab is 100% correct. Sorry about the spacing in the 
chorus i had to cram stuff in... this song is really easy and I tried to put all the 
lyrics in the right places but listen to the cd too to get rythm's and timing.
Here ya go:

INTRO:
e----------------------------------------------------------
B----------------------------------------------------------
G-4-4-4-4--4----4-4-4-4--4----8-8-8-8--8----8-8-8-8--8-----
D-X-X-X-X--X----X-X-X-X--X----X-X-X-X--X----X-X-X-X--X-----
A-2-2-2-2--2----2-2-2-2--2----6-6-6-6--6----6-6-6-6--6-----
E----------------------------------------------------------

e----------------------------------------------------------
B----------------------------------------------------------
G-9-9-9-9--9----6-6-6-6--6----9-9-9-9--9----6-6-6-6--6-----
D-X-X-X-X--X----X-X-X-X--X----X-X-X-X--X----X-X-X-X--X-----
A-7-7-7-7--7----4-4-4-4--4----7-7-7-7--7----4-4-4-4--4-----
E----------------------------------------------------------

VERSE: PLAY THE INTRO WITH LYRICS
Home show, mom won't know. Run out the back door.
He's passed out on the floor. Third time, been caught twice
Forgive our neighbor Bob. I think he humped a dog.

CHORUS:
e----------------------------------------------------------
B----------------------------------------------------------
G----------------------------------------------------------
D-6-6-6-6-6-6-6-6-4-4-4-4-4-4-4-4-2--2-2-2-2-2-4--4-4-4-4-4
A-6-6-6-6-6-6-6-6-4-4-4-4-4-4-4-4-2--2-2-2-2-2-4--4-4-4-4-4
E-4-4-4-4-4-4-4-4-2-2-2-2-2-2-2-2-0--0-0-0-0-0-2--2-2-2-2-2
But good things come to those who wait, 'cause she laid me.
And mom and dad pos - sess the key instant slav - er - y.
No need ex - plain the plan, no need to e - ven both - er.
I'll pack my bags, I swear I'll run. Wish my friends were
                                             twen - ty -

INTERLUDE:
e----------------------------------------------------------
B----------------------------------------------------------
G-4-4-4-4--4----4-4-4-4--4----4-4-4-4--4-------------------
D-4-4-4-4--4----4-4-4-4--4----4-4-4-4--4----2--------------
A-2-2-2-2--2----2-2-2-2--2----2-2-2-2--2----2--(let ring)--
E-------------------------------------------0--------------
  -one

VERSE:
e----------------------------------------------------------
B----------------------------------------------------------
G-4-4--4-4-4--4--4-4--4-4-4--4--8-8--8-8-8--8-8-8--8-8-8--8
D-X-X--X-X-X--X--X-X--X-X-X--X--X-X--X-X-X--X-X-X--X-X-X--X
A-2-2--2-2-2--2--2-2--2-2-2--2--6-6--6-6-6--6-6-6--6-6-6--6
E----------------------------------------------------------
1.White       lies,             blood - shot eyes.
2.How's       Chris  marked  with  lip - stick.
e----------------------------------------------------------
B----------------------------------------------------------
G-9-9--9-9-9--9--6-6--6-6-6--6--9-9--9-9-9--9--6-6--6-6-6-6
D-X-X--X-X-X--X--X-X--X-X-X--X--X-X--X-X-X--X--X-X--X-X-X-X
A-7-7--7-7-7--7--4-4--4-4-4--4--7-7--7-7-7--7--4-4--4-4-4-4
E----------------------------------------------------------
1.Breath of al - co - hol,      stole it from the mall.
2.Better call their fathers, sleeping with your daughters.

CHORUS:
e----------------------------------------------------------
B----------------------------------------------------------
G----------------------------------------------------------
D-6-6--6-6-6--6--4-4--4-4-4--4-2-2--2-2-2--2--4-4--4-4-4--4
A-6-6--6-6-6--6--4-4--4-4-4--4-2-2--2-2-2--2--4-4--4-4-4--4
E-4-4--4-4-4--4--2-2--2-2-2--2-0-0--0-0-0--0--2-2--2-2-2--2
But good things come to those who wait, 'cause she laid me.
And mom and dad possess the key instant slavery. No need ex
plain the plan, no need to even bother. I'll pack my bags I
                                     swear I'll run wish my

                         D--4------------------------------
                         A--4------------------------------
                         E--2------------------------------
                          friends were twen - ty - 


BRIDGE:
e----------------------------------------------------------
B----------------------------------------------------------
G-4--4-4-4--4-4--4--4-4-4--4-4-----------------------------
D-4--4-4-4--4-4--4--4-4-4--4-4--2--2-2-2--2-2--2--2-2-2-2-2
A-2--2-2-2--2-2--2--2-2-2--2-2--2--2-2-2--2-2--2--2-2-2-2-2
E-------------------------------0--0-0-0--0-0--0--0-0-0-0-0
  -one.       You don't    be - long.       You left   the
[ Tab from: http://www.guitartabs.cc/tabs/b/blink_182/anthem_tab_ver_8.html ]
e----------------------------------------------------------
B----------------------------------------------------------
G-4--4-4-4--4-4--4--4-4-4--4-4-----------------------------
D-4--4-4-4--4-4--4--4-4-4--4-4--4--4-4-4--4-4--4--4-4-4-4-4
A-2--2-2-2--2-2--2--2-2-2--2-2--4--4-4-4--4-4--4--4-4-4-4-4
E-------------------------------2--2-2-2--2-2--2--2-2-2-2-2
  kids     to     car - ry      on.       You planned their

e----------------------------------------------------------
B----------------------------------------------------------
G--------4--4-4--4--4-4-4--4-4-----------------------------
D--------4--4-4--4--4-4-4--4-4--2--2-2-2--2-2--2--2-2-2-2-2
A--------2--2-2--2--2-2-2--2-2--2--2-2-2--2-2--2--2-2-2-2-2
E-2-2-2-------------------------0--0-0-0--0-0--0--0-0-0-0-0
  -----  fall.   Too bad you're wrong.         Don't need a
  P.M.

e----------------------------------------------------------
B----------------------------------------------------------
G-4--4-4-4--4-4--4--4-4-4--4-4-----------------------------
D-4--4-4-4--4-4--4--4-4-4--4-4--4--4-4-4--4-4--4--4-4-4--4-
A-2--2-2-2--2-2--2--2-2-2--2-2--4--4-4-4--4-4--4--4-4-4--4-
E-------------------------------2--2-2-2--2-2--2--2-2-2--2-
  mom    dad    slave   drive   song.          I     time

e----------------------------------------------------------
B----------------------------------------------------------
G-4-4--4-4-4--4--4-4--4-4-4--------------------------------
D-4-4--4-4-4--4--4-4--4-4-4--2--2-2--2-2-2--2-2-2--2-2-2--2
A-2-2--2-2-2--2--2-2--2-2-2--2--2-2--2-2-2--2-2-2--2-2-2--2
E----------------------------0--0-0--0-0-0--0-0-0--0-0-0--0
  bomb.          I    time bomb.            I      time

e----------------------------------------------------------
B----------------------------------------------------------
G----------------------------------------------------------
D-6-6--6-6-6--6--6-6--6-6-6--6--4-4--4-4-4--4--4-4--4-4-4-4
A-6-6--6-6-6--6--6-6--6-6-6--6--4-4--4-4-4--4--4-4--4-4-4-4
E-4-4--4-4-4--4--4-4--4-4-4--4--2-2--2-2-2--2--2-2--2-2-2-2
  bomb.          I      time    bomb.          I    time

INTERLUDE PART 1:
e----------------------------------------------------------
B----------------------------------------------------------
G----------------------------------------------------------
D-1-----------4-------------------------1------------------
A-------2-------------------------------------2------------
E---------------------------------------------------0------
 bomb.

e----------------------------------------------------------
B----------------------------------------------------------
G----------------------------------------------------------
D-1-------------------------------------1------------------
A-------------4-------------------------------------2-(X2)-
E-------2-------------------------------------0------------

INTERLUDE PART 2: First time no lyrics second time with
e----------------------------------------------------------
B----------------------------------------------------------
G----------------------------------------------------------
D-----1------1------4------4------1------1------4------4---
A-2-2----2-2----2-2----2-2----2-2----2-2----2-2----2-2-----
E----------------------------------------------------------
  Turn          low        the  ra - di  -  o,         I

e----------------------------------------------------------
B----------------------------------------------------------
G----------------------------------------------------------
D----------------------------------------------------------
A-----2------2------4------4------4------4------4------4---
E-0-0----0-0----2-2----2-2----0-0----0-0----2-2----2-2-----
  think I hear my dad         yell - ing at the band.

PICK SCRAPE LEADING INTO CHORUS...
NOW PLAY THE CHORUS AND BRIDGE AND INSTEAD OF GOING INTO THE INTERLUDE PLAY THIS:

e----------------------------------------------------------
B----------------------------------------------------------
G----------------------------------------------------------
D-4-4--4-4-4--4---1-------4----------1---------------------
A-4-4--4-4-4--4-------2------------------2-----------------
E-2-2--2-2-2--2------------------------------0-------------
    I    time   bomb.       I  time bomb       I  time

e----------------------------------------------------------
B----------------------------------------------------------
G----------------------------------------------4-----------
D--------------------1---1/2-------------------4-(let ring)
A---------1--------------------4---------------2-----------
E-2---4-------------------------------2-2-2----------------
  bomb.     I  time  bomb.       I    time    bomb.
                                      -----
                                      P.M.
Comments