Blink 182 - Anthem Chords & Tabs

 

Anthem Chords & Tabs

Blink 182 Chords & Tabs

Version: 2 Type: Tab 0 ratings
1 star 2 stars 3 stars 4 stars 5 stars
comments

Anthem Tab

Blink 182, Anthem.
Tabbed by Sean, .
  
Intro chords (Dist) 

e-------------- 
b-------------- 
g-4--8--9--6---
d-4--8--9--6---
a-2--6--7--4---
e--------------

Verse   1st time play same as intro then 2nd time play fast

e------------
b------------
g-4-4-9-6----
d-4-4-9-6----
a-2-2-7-4----
e------------

Chorus

e-------------
b-------------
g-------------
d-6-4-2-4-----
a-6-4-2-4-----
e-4-2-0-2-----

Part right after 1st chorus

e----------------------------
b----------------------------
g-44444-44444--44444---------
d-44444-44444--44444---2-----
a-22222-22222--22222---2-----
e----------------------0-----

You don't belong....(chorus 2)

e----------------------------------------
b----------------------------------------
g-4---4-------4---4----------------------
d-4-2-4-4-444-4-2-4-4--------------------
a-2-2-2-4-444-2-2-2-4--------------------
e---0---2-222---0---2--------------------
          ^^^ 
       Palm mute
[ Tab from: http://www.guitartabs.cc/tabs/b/blink_182/anthem_tab_ver_2.html ]
I time bomb...(chorus 3)

e-----------------
b-----------------
g-4---------------
d-4-2-6-4---------
a-2-2-6-4---------
e---0-4-2---------



e-------------\------------\---------------\----------
b-------------\------------\---------------\---------
g-------------\------------\---------------\----------
d--1-------4--\---1--------\---1-----------\--1-------
a-----2-------\------2-----\------------4--\--------2-
e-------------\---------0--\--------2------\-----0----

the bass does something and then you do a pickslide and end with chorus 1 and 2 and this next part.

Part right after the 1st I time bomb...
Ending

e--------------------------------------------------
b-----------\-------------\-----------\--------\---
g-----------\-------------\-----------\--------\-4-
d---1-----4-\--1----------\--------1--\-1--2---\-4-
a------2----\------2------\-----------\-------4\-2-
e-----------\----------0--\-2--4------\--------\---

 
:: Ultimate Guitar Archive :: 
http://www.ultimate-guitar.com 

Comments