Blink 182 - Anthem Part Two Chords & Tabs

 

Anthem Part Two Chords & Tabs

Blink 182 Chords & Tabs

Version: 13 Type: Tab 0 ratings
1 star 2 stars 3 stars 4 stars 5 stars
comments

Anthem Part Two Tab

BLINK 182
Anthem Part Two LIVE
Tabbed by Ben281

Ok first off I havn't seen a tab for this song that's correct yet so here's how I 
think it should go... I've watched Tom play it live and tried to copy from there so 
here it is.

INTRO:
PART 1
e----------------------------------------------------------
B--8---8---6---6---5---5---6---6-----(X4)------------------
G----5---5---5---5---5---5---5---5-------------------------
D----------------------------------------------------------
A----------------------------------------------------------
E----------------------------------------------------------
PART 2
e----------------------------------------------------------
B----------------------------------------------------------
G----------------------------------------------------------
D-----2h3----2-----2h3----2-----2h3----2-----0----0---(X4)-
A--33-----33----33-----33----33-----33----33---33----------
E----------------------------------------------------------

                                            ---------------
                                            ---------------
                                            --5-5-5-5--(X2)
                                            --5-5-5-5------
                                            --3-3-3-3------
                                            ---------------
PART 3
e----------------------------------------------------------
B----------------------------------------------------------
G--9-9-9--10-10--9--5-5-5--7-7-7--(X3)--9-9-9--10-10--5----
D--9-9-9--10-10--9--5-5-5--7-7-7--------9-9-9--10-10--5----
A--7-7-7--8--8---7--3-3-3--5-5-5--------7-7-7--8--8---3----
E----------------------------------------------------------
[ Tab from: http://www.guitartabs.cc/tabs/b/blink_182/anthem_part_two_tab_ver_13.html ]
VERSE:
Everything has fallen to pieces
Earth is dying, help me Jesus
e----------------------------------------------------------
B----------------------------------------------------------
G--5-------------------------------------------------------
D--5--555555555555555555-----------------------------------
A--3--333333333333333333--77777777--33333333--(x2)---------
E-------------------------55555555--11111111---------------
      Palm Mute---------------------------->
We need guidance, we've been misled
Young and hostile but not stupid

This part is played on the bass but it sounds fine if you play it on guitar too
D----------------------------------------------------------
A----7------5------3---------------------------------------
E--5---5--3---3--1-----------------------------------------

e----------------
B----------------
G--5--(let ring)-
D--5-------------
A--3-------------
E----------------

Corporate leaders, politicians
Kids can't vote, adults elect them

REPEAT VERSE:

Laws that rule the school and workplace
Signs that caution sixteen's unsafe

CHORUS:
e----------------------------------------------------------
B----------------------------------------------------------
G--5-5-5-5-5-5---------------------------------------------
D--5-5-5-5-5-5--5-5-5-5-5-5--2-2-2-2-2-2--3-3-3-3-3-3------
A--3-3-3-3-3-3--5-5-5-5-5-5--2-2-2-2-2-2--3-3-3-3-3-3------
E---------------3-3-3-3-3-3--0-0-0-0-0-0--1-1-1-1-1-1------

We really need to see this through
We never wanted to be abused
We'll never give up, it's no use
If we're fucked up, you're to blame

REPEAT INTRO PART 3:

Let this train-wreck burn more slowly
Kids are victims in this story

REAPEAT VERSE:

Drown the  youth with useless warnings
Teenage rules, they're fucked and boring

REAPEAT THE GUITAR/BASS PART
REPEAT CHORUS:
We really need to see this through
We never wanted to be abused
We'll give, It's no use
If we're fucked up, you're to blame

There's a break in the song right here and there's a bass solo

Everything has fallen to pieces
Everything has fallen to pieces
Everything has fallen to pieces
Everything has fallen to...

REPEAT CHRORUS:
We really need to see this through 
We never wanted to be abused
We'll never give up, it's no use
If we're fucked up, your to blame

REPEAT INTRO PART 2 TO THE END

That's all It's all right except the chorus... the chords are correct but mess 
around with the strumming a little bit. Feel free to comment on this tab... tell me how 
it is
Comments