Blink 182 - Anthem Part Two Chords & Tabs

 

Anthem Part Two Chords & Tabs

Blink 182 Chords & Tabs

Version: 12 Type: Tab 0 ratings
1 star 2 stars 3 stars 4 stars 5 stars
comments

Anthem Part Two Tab

Blink 182 - Anthem Part 2
T.O.Y.P.A.J.
Tabbed By:Mike,hawker489@aol.com
I've just been playing around with the song and I found
some easier ways to play it.
Standard Tuning
~=let ring
*=palm mute

Intro(This is how Tom plays it)
e----------------------------------
B-8---8---6---6---5---5---6---6----
G---5---5---5---5---5---5---5---5--
D----------------------------------
A----------------------------------
E----------------------------------

Verse1
e------------------------------------------
B------------------------------------------
G------------------------------------------
D---0/3---2---0/3---2---0/3---2----0----0--
A-33---33---33---33---33---33---33---33----
E------------------------------------------

play x3 then:

Verse2
e---------------------------------------
B---------------------------------------
G---------------------------------5--5--
D---0/3---2---0/3---2---0/3---2---5--5--
A-33---33---33---33---33---33-----3--3--
E---------------------------------------

Bridge
e-----------------------
B-----------------------
G-----------------------
D-222-333-222-----0000--
A-------------333-------
E-----------------------

play x3 then:

e--------------------
B--------------------
G--------------------
D-222-333------------
A---------333333333--
E--------------------
[ Tab from: http://www.guitartabs.cc/tabs/b/blink_182/anthem_part_two_tab_ver_12.html ]
Interlude
e---------------------------------------------
B---------------------------------------------
G-5~~~~~--------------------------------------
D-5~~~~~--------------------------------------
A-3~~~~~-(3333333333333333--------------------
E-------------------------55555555-11111111)--
                  
Pre-Chorus
e----------------------------
B----------------------------
G----------------------------
D----------------------------
A---7------5------3~~~~~~~~--
E-5---5--3---3--1------------

Chorus
e--------------------------------------
B--------------------------------------
G-55555555-----------------------------
D-55555555-33333333-77777777-55555555--
A-33333333-33333333-77777777-55555555--
E----------11111111-55555555-33333333--

play x2 then:

e--------------------------------------------------
B--------------------------------------------------
G-55555555-----------------------------------------
D-55555555-33333333-77777777-55555555-77777777--3--
A-33333333-33333333-77777777-55555555-77777777--3--
E----------11111111-55555555-33333333-55555555--1--
  ******** ******** ******** ******** ********

(Interlude)
(Chorus)

Riff
e----
B----
G-5--
D-5--keep playing this until:
A-3--
E----

(Chorus)
(Verse1)

End on
e------------
B------------
G-5~~~~~~~~--
D-5~~~~~~~~--
A-3~~~~~~~~--
E------------

Thats it, hope it helps you. You can listen to the song
for timing and how many times you play each part.   
Comments