Blink 182 - Anthem Part Two Chords & Tabs

 

Anthem Part Two Chords & Tabs

Blink 182 Chords & Tabs

Version: 1 Type: Tab 1 rating
1 star 2 stars 3 stars 4 stars 5 stars
comments

Anthem Part Two Tab

Band:  Blink 182
Title: Anthem Part 2
Album: Take Off Your Pants And Jacket

e-mail: trecool80@aol.com



Intro Part 1:
e:--------------------------------------------------
B:--8---8---6---6---5---5---6---6-------------------
G:----5---5---5---5---5---5---5---5-----------------
D:--------------------------------------------------
A:--------------------------------------------------
E:--------------------------------------------------

Intro Part 2:
e:----------------------------------------------------------------------
B:----------------------------------------------------------------------
G:----------------------------------------------------------------------
D:--------2h3-------2-------2h3-------2------2h3------2-------0-----0---
A:----3-3-------3-3-----3-3-------3-3----3-3-----3-3------3-3---3-3-----
E:----------------------------------------------------------------------


       I didn't list how many times to hit each chord from here on,but you 
       can figure it out.
[ Tab from: http://www.guitartabs.cc/tabs/b/blink_182/anthem_part_two_tab.html ]
Intro Part 3:       
e:----------------------------------------------------------------------------------
B:----------------------------------------------------------------------------------
G:---9-10---9----5---7----9---10---9-----5---7-----9---10---9-----5---7---9---10---5
D:---x--x---x----x---x----x----x---x-----x---x-----x----x---x-----x---x---x----x---x
A:---7--8---7----3---5----7----8---7-----3---5-----7----8---7-----3---5---7----8---3
E:----------------------------------------------------------------------------------


Verse: Halfway through 
e:--------------------------------
B:--------------------------------
G:---5-5-5-5-----5------2---------
D:---5-5-5-5-----5------2------3--
A:---3-3-3-3-----3------0------3--
E:-----------------------------1--
                 p.m.-------------


BASS bridge for guitar:
e:-----------------------------
B:-----------------------------
G:-----------------------------
D:-----2-----------------------
A:---0---0-----5---------3-----
E:-----------3---3----1--------


Chorus: 
e:------------------------------
B:------------------------------
G:--2---------5-----------------
D:--2----3----5---5-------------
A:--0----3----3---5-------------
E:-------1--------3-------------

palm mute on the third time then the fourth time onl play the first two 
chords of the chorus once


thats all there is,the parts are repeated other times in the song but you 
can figure out where they go

e-mail at  trecool80@aol.com











Comments