Blink 182 - Anthem Part Two Solo Chords & Tabs

 

Anthem Part Two Solo Chords & Tabs

Blink 182 Chords & Tabs

Version: 1 Type: Bass Tab 0 ratings
1 star 2 stars 3 stars 4 stars 5 stars
comments

Anthem Part Two Solo Bass Tab

Blink 182
Anthem Part 2 Solo
Submitted by: Dave Brown
Email: Snow2001@bolt.com

Standard Tuning EADG

Ok I noticed there was one posting but it doesn't sound right at all.

Here's how I play it and it sound right on

E------------------------------1-1-1-1-------
A----3-3-3-3-3-3-3-3--0-0-0-0----------------    3X's
D-------------------------------------------- 
G-------------------------------------------- 
[ Tab from: http://www.guitartabs.cc/tabs/b/blink_182/anthem_part_two_solo_btab.html ]
then it switchs once, just before guitar comes in again

E--------------------------------------------
A----3-3-3-3-3-3-3-3--0-0-0-0----------------
D------------------------------3-3-3-3-------
G--------------------------------------------

Timings may be a bit off and you made need to make adjustments on
the number times you play each note, just play with the cd.

To me this sounds right, but if you have any input or changes let me
know.  Comments, Questions, send them to my email.

Enjoy!!
Comments