Blink 182 - Anthem Part Two Chords & Tabs

 

Anthem Part Two Chords & Tabs

Blink 182 Chords & Tabs

Version: 2 Type: Bass Tab 1 rating
1 star 2 stars 3 stars 4 stars 5 stars
comments

Anthem Part Two Bass Tab

   
Blink 182
--------------------------------------------------------
Anthem part two 
---------------------------------------------------------
Tabbed by:Danzerello
G:---------------------------------------------------------------
D:---------------------------------------------------------------  3X
A:3-3-3-3--------------------------------------------------------
E:---------------------------------------------------------------

G:---------------------------------------------------------------
D:---------------------------------------------------------------  2X
A:5--5-5-5-5-5-5-0--0-0-0-0-0-0-8--8-8-8-8-8-8-------------------
E:---------------------------------------------------------------

G:---------------------------------------------------------------
D:---------------------------------------------------------------  3X
A:3-3-3-3-3-3-3-3-5-5-5-5-5-5-5-5-0-0-0-0-0-0-0-0-8-8-8-8-8-8-8-8
E:---------------------------------------------------------------

G:---------------------------------------------------------------
D:---------------------------------------------------------------  1X
A:3-3-3-3--3-3-3-3-----------------------------------------------
E:---------------------------------------------------------------

G:---------------------------------------------------------------
D:---------------------------------------------------------------  1X 
A:3--3-3-3-3-3-3-3-3-3-3-3-3-3-3-0--0-0-0-0----------------------
E:------------------------------------------1-1-1-1-1-1-1-1------

G:---------------------------------------------------------------
D:---------------------------------------------------------------  1X
A:3--3-3-3-3-3-3-3-3-3-3-3-3-3-3-0-0-0-0-0-0---------------------
E:-------------------------------------------1-------------------
                                                                  
G:--------------------------------------------------------------- ___________
D:---------------------------------------------------------------            [
A:3-3-3-3-3-3-3-3-3-3-3-3-3-3-3-3-0-0-0-0-0-0-0-0----------------            [
E:------------------------------------------------1-1-1-1-1-1-1-1            [
                                                                             [----------2X
G:---------------------------------------------------------------            [
D:---------------------------------------------------------------            [
A:3-3-3-3-3-3-3-3-3-3-3-3-3-3-3-3-0-0-0-0-0-0-0-0-8-8-8-8-8-8-8-8 ___________[
E:---------------------------------------------------------------

G:-------9----------------7---------------5----------------------
D:7-----------7------5---------5-----3---------------------------  1X
A:---------------------------------------------------------------
E:---------------------------------------------------------------

G:--------------------------------------------------------------- ___________
D:---------------------------------------------------------------            [
A:3-3-3-3-3-3-3-3-3-3-3-3-3-3-3-3-0-0-0-0-0-0-0-0----------------            [
E:------------------------------------------------1-1-1-1-1-1-1-1            [
                                                                             [----------2X
G:---------------------------------------------------------------            [
D:---------------------------------------------------------------            [
A:3-3-3-3-3-3-3-3-3-3-3-3-3-3-3-3-0-0-0-0-0-0-0-0-8-8-8-8-8-8-8-8 ___________[
E:---------------------------------------------------------------

G:-------9----------------7---------------5----------------------
D:7-----------7------5---------5-----3---------------------------  1X
A:---------------------------------------------------------------
E:---------------------------------------------------------------

G:---------------------------------------------------------------
D:---------------------------------------------------------------  2X
A:------------------------------3--3-3-3-3-3-3-------------------
E:0--0-0-0--0-0-1-1-1-1-1-1-1-1----------------3--3-3-3-3-3-3----
[ Tab from: http://www.guitartabs.cc/tabs/b/blink_182/anthem_part_two_btab_ver_2.html ]
G:--------------------------------------------------------------- ___________
D:---------------------------------------------------------------            [
A:-0-0-0-0-0-0-0-0-----------------3-3-3-3-3-3-3-3---------------            [
E:-----------------1-1-1-1-1-1-1-1-------------------------------            [ 
                                                                             [----------1X 
G:---------------------------------------------------------------            [
D:---------------------------------------------------------------            [
A:-----------------0-0-0-0-0-0-0-0------------------------------- ___________[
E:3-3-3-3-3-3-3-3------------------1-----------------------------

G:---------------------------------------------------------------
D:---------------------------------------------------------------  1X
A:3--3-3-3-3-3-3-3-3-3-3-3-3-3-3-0--0-0-0-0----------------------
E:------------------------------------------1-1-1-1-1-1-1-1-1----

G:---------------------------------------------------------------
D:---------------------------------------------------------------  1X
A:3--3-3-3-3-3-3-3-3-3-3-3-3-3-3-0-0-0-0-0-0---------------------
E:-------------------------------------------1-------------------

G:---------------------------------------------------------------
D:---------------------------------------------------------------  1X
A:3--3--3--3--3--3-3-3-3-3-3-3-0--0-0-0-0-0-0--------------------
E:---------------------------------------------------------------

G:---------------------------------------------------------------
D:---------------------------------------------------------------  2X
A:3--3-3-3-3-3-3-3--3-3-3-3-3-3-0--0-0-0-0-0-0-------------------
E:---------------------------------------------1--1-1-1-1-1-1----

G:---------------------------------------------------------------
D:---------------------------------------------------------------  1X
A:3--3-3-3-3-3-3-3--3-3-3-3-3-3-0--0-0-0-0-0-0-------------------
E:---------------------------------------------8--8-8-8-8-8-0----

G:17----17----17----17----17----17----17----17-------------------
D:---17----17----17----17----17----17----17----17----------------  1X
A:---------------------------------------------------------------
E:---------------------------------------------------------------

G:17----17----17----17----17----17----17-------------------------
D:---17----17----17----17----17----17----------------------------  1X
A:---------------------------------------------------------------
E:---------------------------------------------------------------

G:---------------------------------------------------------------
D:---------------------------------------------------------------  2X
A:------------------------------3--3-3-3-3-3-3-------------------
E:0--0-0-0--0-0-1-1-1-1-1-1-1-1----------------3--3-3-3-3-3-3----

G:--------------------------------------------------------------- ___________
D:---------------------------------------------------------------            [
A:-0-0-0-0-0-0-0-0-----------------3-3-3-3-3-3-3-3---------------            [
E:-----------------1-1-1-1-1-1-1-1-------------------------------            [ 
                                                                             [----------1X 
G:---------------------------------------------------------------            [
D:---------------------------------------------------------------            [
A:-----------------0-0-0-0-0-0-0-0------------------------------- ___________[
E:3-3-3-3-3-3-3-3------------------1-----------------------------

G:---------------------------------------------------------------
D:---------------------------------------------------------------  3X
A:3-3-3-3-3-3-3-3-5-5-5-5-5-5-5-5-0-0-0-0-0-0-0-0-1-1-1-1-1-1-1-1
E:---------------------------------------------------------------

G:---------------------------------------------------------------
D:---------------------------------------------------------------  1X
A:3-3-3-3-3-3-3-3-5-5-5-5-5-5-5-5-0-0-0-0-0-0-0-0-8-8-8-8-8-8-8-8
E:---------------------------------------------------------------

G:---------------------------------------------------------------
D:---------------------------------------------------------------  1X
A:3-3-3-3-3-3-3-3-5-5-5-5-5-5-5-5-0-0-0-0-0-0-0-0-8--------------
E:---------------------------------------------------------------

Comments