Blink 182 - Anthem Part Chords & Tabs

 

Anthem Part Chords & Tabs

Blink 182 Chords & Tabs

Version: 2 Type: Bass Tab 0 ratings
1 star 2 stars 3 stars 4 stars 5 stars
comments

Anthem Part Bass Tab

this is the bass tab for anthem part 2!

(Intro is guitar after the high thing twice the bass does this)
G-----------------------------
D-------------------3333333333
A--33333333000000000----------
E-----------------------------
then after that it does this
G---------------------------------
D----------333333333--------333333
A--33333333---------00000000------
E---------------------------------
it does this for a while listen for when it changes

Verse 1, 2 , &3

G--------------------------
D---------------------------
A---3333333300000000--------
E-------------------111111111

Break in between verse 1 and 2 and 2 and 3
[ Tab from: http://www.guitartabs.cc/tabs/b/blink_182/anthem_part_btab_ver_2.html ]
G---------------------
D----14---------------
A--12--12--17-----15--
E--------15--15-13----

Chorus

G-------------------------
D-------------------------
A--333333------00000------
E--------111111-----33333-

Then the break thing is this

G------------------------------------
D------------------------------------
A--3333333333333330000000------------
E------------------------11111111----
   (does this 4 times then this)

G----------17--
D--17-17-17----
A--------------
E--------------   (does this a couple times)

thats it one of the best blink songs ever, later!

email me for any corrections at
anewhope_182@yahoo.com
Comments