Blink 182 - Always Chords & Tabs

 

Always Chords & Tabs

Blink 182 Chords & Tabs

Version: 9 Type: Tab 0 ratings
1 star 2 stars 3 stars 4 stars 5 stars
comments

Always Tab

standard E tuning.

intro:
e|------------------------------------------------------------------------|
b|------------------------------------------------------------------------|
g|------------------------------------------------------------------------|
d|--4-4-4-4-4-4-4-4---------------------------------------2-2-2-2-2-2-2-2-|x2
a|--2-2-2-2-2-2-2-2---4-4-4-4-4-4-4-4---6-6-6-6-6-6-6-6---2-2-2-2-2-2-2-2-|
e|--2-2-2-2-2-2-2-2---2-2-2-2-2-2-2-2---4-4-4-4-4-4-4-4---0-0-0-0-0-0-0-0-|

      repeat this through verse....

e|------------------------------------------------------------------------|
b|------------------------------------------------------------------------|
g|------------------------------------------------------------------------|
d|--4~-----4~------------2~--------4~-----4~----------------2-2-2-2-2-2-2-|
a|--2~-----2~-------6~---2~--------2~-----2~----------6~----2-2-2-2-2-2-2-|
e|------------------4~---0~---------------------------4~----0-0-0-0-0-0-0-|

so here, i am, i'm trying..... so here, i am, are you ready?

chorus:

e|------------------------------------------------------------------------|
b|------------------------------------------------------------------------|
g|------------------------------------------------------------------------|
d|------------4-4-4-4-4/8-8-8-8-8-------------2-2-2-2-2-------------------|
a|------------2-2-2-2-2/6-6-6-6-6--6-6-6-6-6--2-2-2-2-2-------------------|
e|---------------------------------4-4-4-4-4--0-0-0-0-0-------------------|

come on let me hold you, touch you, feel you, always,
               kiss you, tase you, all night, always....

e|------------------------------------------------------------------------|
b|------------------------------------------------------------------------|
g|------------------------------------------------------------------------|
d|--4-4-4-4-4-4-4-4---------------------------------------2-2-2-2-2-2-2-2-|
a|--2-2-2-2-2-2-2-2---4-4-4-4-4-4-4-4---6-6-6-6-6-6-6-6---2-2-2-2-2-2-2-2-|
e|--2-2-2-2-2-2-2-2---2-2-2-2-2-2-2-2---4-4-4-4-4-4-4-4---0-0-0-0-0-0-0-0-|

        through 2nd verse....

e|------------------------------------------------------------------------|
b|------------------------------------------------------------------------|
g|------------------------------------------------------------------------|
d|--4~-----4~------------2~--------4~-----4~----------------2-2-2-2-2-2-2-|
a|--2~-----2~-------6~---2~--------2~-----2~----------6~----2-2-2-2-2-2-2-|
e|------------------4~---0~---------------------------4~----0-0-0-0-0-0-0-|

so here, i am, i'm trying..... so here, i am, are you ready?

chorus x 2

e|------------------------------------------------------------------------|
b|--4---4---4---4-5--4---4---4---4-5--4---4---4---4-5--4---4-5--4---4-5---|
g|----4---4---4--------4---4---4--------4---4---4--------4--------4-------|
d|------------------------------------------------------------------------|x2
a|------------------------------------------------------------------------|
e|------------------------------------------------------------------------|
[ Tab from: http://www.guitartabs.cc/tabs/b/blink_182/always_tab_ver_9.html ]
e|------------------------------------------------------------------------|
b|------------------------------------------------------------------------|
g|------------------------------------------------------------------------|
d|--8~~----6~~----4~~~------4/6/8~~---6~~---4~~~~-------------------------|
a|--6~~----4~~----2~~~------2/4/6~~---4~~---2~~~~-------------------------|
e|------------------------------------------------------------------------|

nothing plays:

i've been here, before a few times, and i'm quite, aware, we're dying....

chorus x 2.


e|------------------------------------------------------------------------|
b|--4---4---4---4-5--4---4---4---4-5--4---4---4---4-5--4---4-5--4---4-5---|
g|----4---4---4--------4---4---4--------4---4---4--------4--------4-------|
d|------------------------------------------------------------------------|x2
a|------------------------------------------------------------------------|
e|------------------------------------------------------------------------|

e|------------------------------------------------------------------------|
b|--4---4---4---4-5--4---4---4---4-5--4---4---4---4-5--4---4-5--4---4-5---|
g|----4---4---4--------4---4---4--------4---4---4--------4--------4-------|
d|------------------------------------------------------------------------|x2
a|------------------------------------------------------------------------|
e|------------------------------------------------------------------------|
                                                            Always......

this is the synthesiser part that comes in after that ^^ is played twice.

e|-------------------------------------|------------------------------------|
b|-------------------------------------|------------------------------------|
g|--8--6--4---8--6--4---8--6--4---9--4-|-8--6--4---8--6--4---8--6--4---9--4-|
d|--x--x--x---x--x--x---x--x--x---x--x-|-x--x--x---x--x--x---x--x--x---x--x-|
a|--6--4--2---6--4--2---6--4--2---7--2-|-6--4--2---6--4--2---6--4--2---7--2-|
e|-------------------------------------|------------------------------------|
                                                               Always.....
end with:

e|--------------------------|
b|--------------------------|
g|--------------------------|
d|---4~~~~~-----------------|
a|---2~~~~~-----------------|
e|--------------------------|

there u go! any questions? send me a message on this! lol.   ciao! [x]

lyrics:

I've been here before a few times
And i'm quite aware we're dying
And your hands they shake goodbye's
And i'll take you back if you have me

So here, i am, i'm trying
So here, i am, are you ready?

Come on let me hold you, touch you, feel you, always
Kiss you, taste you, all night, always.

And i'll miss your laugh, your smile
I'll admitt i'm wrong if you tell me
I'm so sick of fights i hate them
Lets start this again, for real.

So here, i am, i'm trying
So here, i am, are you ready?

Come on let me hold you, touch you, feel you, always
Kiss you, taste you, all night, always.
Come on let me hold you, touch you, feel you, always
Kiss you, taste you, all night, always.

I've been here before a few times
And i'm quite aware we're dying.

Come on let me hold you, touch you, feel you, always
Kiss you, taste you, all night, always.
Come on let me hold you, touch you, feel you, always
Kiss you, taste you, all night, always.

always..........
always..........
Comments