Blink 182 - Always Chords & Tabs

 

Always Chords & Tabs

Blink 182 Chords & Tabs

Version: 10 Type: Tab 0 ratings
1 star 2 stars 3 stars 4 stars 5 stars
comments

Always Tab

   
Title: Always
Artist: Blink 182
Album: Blink 182
Record Label: Geffen
Tuning: Standard


Verse 1
(Guitar comes in at approx. 0:34)
E[-----------------------------------------------------------------]
B[-----------------------------------------------------------------]
G[-----------------------------------------------------------------]
D[-----------------------------------------------------------------]
A[-9-9-9-9-9-9-9-9-9-9-9-9-9-9-9-9-6-6-6-6-6-6-6-6-6-6-6-6-6-6-6-6-]
E[-7-7-7-7-7-7-7-7-6-6-6-6-6-6-6-6-4-4-4-4-4-4-4-4-4-4-4-4-4-4-4-4-]
  PM---------------------------------------------------------------
Verse 1
(Continued)
E[-----------------------------------------------------------------]
B[-----------------------------------------------------------------]
G[-----------------------------------------------------------------]
D[-----------------------------------------------------------------]
A[-9-9-9-9-9-9-9-9-9-9-9-9-9-9-9-9-6-6-6-6-6-6-6-6-4-4-4-4-4-4-4-4-]
E[-7-7-7-7-7-7-7-7-6-6-6-6-6-6-6-6-4-4-4-4-4-4-4-4-2-2-2-2-2-2-2-2-]
  PM---------------------------------------------------------------
Pre-chorus
E[-----------------------------------------------]
B[-------4---4-------4---4-------4---4-----------]
G[-----4----4------4----4------4----4-----4----4-]
D[-----------------------------------------------]
A[-2-2--2--2---4-4--4--4-------------------------]
E[-------------------------4-4--4--4---0-0--0-0--](x2)


Chorus
E[-----------------------------------------------------------------]
B[-----------------4-4-4-4-4-4-4-4---------------------------------]
G[-----------------3-3-3-3-3-3-3-3---------------------------------]
D[-9-9-9-9-9-9-9-9-1-1-1-1-1-1-1-1-6-6-6-6-6-6-6-6-2-2-2-2-2-2-2-2-]
A[-9-9-9-9-9-9-9-9-----------------6-6-6-6-6-6-6-6-2-2-2-2-2-2-2-2-]
E[-7-7-7-7-7-7-7-7-----------------4-4-4-4-4-4-4-4-0-0-0-0-0-0-0-0-](x2)
i know there's another way to play the chorus but i saw tom play it like this in the
video

Part after chorus
(same as prechorus)
E[-----------------------------------------------]
B[-------4---4-------4---4-------4---4-----------]
G[-----4----4------4----4------4----4-----4----4-]
D[-----------------------------------------------]
A[-2-2--2--2---4-4--4--4-------------------------]
E[-------------------------4-4--4--4---0-0--0-0--](x2)

Verse 2

E[----------------------]                    E[----------------------]
B[----------------------]                    B[----------------------]
G[----------------------]        or          G[----------------------]
D[-1----1-------1-------]                    D[----------------------]
A[---2----4-1-4---------]                    A[-6----6-------6-------]
E[----------------4-2-4-](x4)                E[---7----9-6-9---4-2-4-](x4)


Pre-chorus
E[-----------------------------------------------]
B[-------4---4-------4---4-------4---4-----------]
G[-----4----4------4----4------4----4-----4----4-]
D[-----------------------------------------------]
A[-2-2--2--2---4-4--4--4-------------------------]
E[-------------------------4-4--4--4---0-0--0-0--](x4)

Chorus
E[-----------------------------------------------------------------]
B[-----------------4-4-4-4-4-4-4-4---------------------------------]
G[-----------------3-3-3-3-3-3-3-3---------------------------------]
D[-9-9-9-9-9-9-9-9-1-1-1-1-1-1-1-1-6-6-6-6-6-6-6-6-2-2-2-2-2-2-2-2-]
A[-9-9-9-9-9-9-9-9-----------------6-6-6-6-6-6-6-6-2-2-2-2-2-2-2-2-]
E[-7-7-7-7-7-7-7-7-----------------4-4-4-4-4-4-4-4-0-0-0-0-0-0-0-0-](x4)
[ Tab from: http://www.guitartabs.cc/tabs/b/blink_182/always_tab_ver_10.html ]
Interlude
Guitar 1
E[---------------------------------------------------------------]
B[---------------------------------------------------------------]
G[-4-4-4-4-4-4-4-4-3-3-3-3-3-3-3-3-4-4-4-4-4-4-4-4-8-8-8-8-4-4-4-]
D[-4-4-4-4-4-4-4-4-4-4-4-4-4-4-4-4-4-4-4-4-4-4-4-4-9-9-9-9-4-4-4-]
A[-2-2-2-2-2-2-2-2-1-1-1-1-1-1-1-1-2-2-2-2-2-2-2-2-7-7-7-7-2-2-2-]
E[---------------------------------------------------------------]

Guitar 2
E[---------------------------------------------------------------------]
B[-4---4---4---4-5-4---4---4---4-5-4---4---4---4-5-4---4-5-4---4-5-4---]
G[---4---4---4-------4---4---4-------4---4---4-------4-------4-------4-]
D[---------------------------------------------------------------------]
A[---------------------------------------------------------------------]
E[---------------------------------------------------------------------]

Interlude 
(Continued)
Guitar 1
E[---------------------------------------------------------------]
B[---------------------------------------------------------------]
G[-4-4-4-4-4-4-4-4-3-3-3-3-3-3-3-3-4-4-4-4-4-4-4-4-8-8-8-8-4-4-4-]
D[-4-4-4-4-4-4-4-4-4-4-4-4-4-4-4-4-4-4-4-4-4-4-4-4-9-9-9-9-4-4-4-]
A[-2-2-2-2-2-2-2-2-1-1-1-1-1-1-1-1-2-2-2-2-2-2-2-2-7-7-7-7-2-2-2-]
E[---------------------------------------------------------------]

Guitar 2
E[---------------------------------------------------------------------]
B[-4---4---4---4-5-4---4---4---4-5-4---4---4---4-5-4---4-5-4---4-5-4---]
G[---4---4---4-------4---4---4-------4---4---4-------4-------4-------4-]
D[---------------------------------------------------------------------]
A[---------------------------------------------------------------------]
E[---------------------------------------------------------------------]

Then from 1st guitar part slide to this to finish the interlude
E[----------------------------]
B[----------------------------]
G[----------------------------]
D[----------------------------]
A[-2/4/6--4--2----2/4/6--4--2-]
E[----------------------------]

Chorus
E[-----------------------------------------------------------------]
B[-----------------4-4-4-4-4-4-4-4---------------------------------]
G[-----------------3-3-3-3-3-3-3-3---------------------------------]
D[-9-9-9-9-9-9-9-9-1-1-1-1-1-1-1-1-6-6-6-6-6-6-6-6-2-2-2-2-2-2-2-2-]
A[-9-9-9-9-9-9-9-9-----------------6-6-6-6-6-6-6-6-2-2-2-2-2-2-2-2-]
E[-7-7-7-7-7-7-7-7-----------------4-4-4-4-4-4-4-4-0-0-0-0-0-0-0-0-](x4)

Outro
E[---------------------------------------------------------------------]
B[-4---4---4---4-5-4---4---4---4-5-4---4---4---4-5-4---4-5-4---4-5-4---]
G[---4---4---4-------4---4---4-------4---4---4-------4-------4-------4-]
D[---------------------------------------------------------------------]
A[---------------------------------------------------------------------]
E[---------------------------------------------------------------------](x4)
And that's the end of another great blink song im pretty sure this is 100% accurate.
Any questions or comments email me @hyperkid1012@aol.com.
~Dylan 

[Verse 1]
I've been here before a few times
and im quite aware we're dying
and your hands they shake with goodbyes
and i'll take you back if you'd have me

So here i am
im trying
so here i am
are you ready?

[Chorus]
Come on let me hold you
touch you
feel you always
kiss you
taste you
all night always

[Verse 2]
And i'll miss your laugh
your smile
i'll admit i'm wrong 
if you tell me
i'm so sick of fights
i hate them
let's start this again
for real

So here i am 
i'm trying
so here i am
are you ready?

So here i am 
i'm trying
so here i am
are you ready?

[Chorus x2]

I've been here before
a few times
and im quite aware 
we're dying

[Chorus x2]


Always..........always
Comments